Esteroides anabolizantes orales, inyectables, ciclos de esteroides, combinaciones de orales e inyectables, ciclos exclusivamente orales. Toda la farmacología relacionada al culturismo. NOVATOS
#431020 por mulero
Dom Oct 23, 2011 1:06 pm
Hola a todos, en Noviembre empiezo un ciclo con anapolon. Es la segunda vez que uso anadrol, aunque la primera que uso el de este lab., la otra vez usé uno que se llamava oxitolan o algo así, hace ya tiempo y no me acuerdo... Hace un año y medio que no uso roids y este es mi quinto ciclo. Peso unos 97 kilos y mido 1,87 cm.
El ciclo que quiero hacer es este:

SEMANA DECA SUSTE ANAPOLON PROVIRON NOLVADEZ CLOMID PREGNYL
1 300 500 50/dia 25/dia
2 300 500 100/dia 25/dia
3 300 250 100/dia 25/dia
4 300 250 150/dia 25/dia
5 300 250 150/dia 25/dia
6 300 250 25/dia
7 300 250 25/dia
8 300 250 25/dia
9 20/dia 100/dia 1000u.i. dia sí dia no
10 20/dia 100/dia 1000u.i. dia sí dia no
11 20/dia 50/dia

Como protector voy a tomar 3 cápsulas de legalón al día los 15 días antes del ciclo y los 15 días después del postciclo.
¿Qué protector me recomendais para tomar durante el ciclo y el postciclo y en qué cantidades?
¿Cuantos meses tengo que descansar para empezar con el siguiente ciclo? (Llevo un año y medio sin usarlos y este año quiero darle caña, el siguiente sería con deca y susta las 8 semanas, las 4 primeras con dianabol y las 4 ultimas con winny)
¿Veis muy mal añadir 2 semanas más de ciclo como las semanas 6,7 y 8 (solo con deca, sustenon y proviron?????

Gracias de antemano
#431022 por mulero
Dom Oct 23, 2011 1:17 pm
perdon, repito el ciclo:

SEMANA--DECA--SUSTEN--ANAPOLON--PROVIRON--NOLVADEX--CLOMID--PREGNYL
1---------300----500-------50------------25--------------------------------------------
2---------300----500-------100-----------25--------------------------------------------
3---------300----250-------100-----------25--------------------------------------------
4---------300----250-------150-----------25--------------------------------------------
5---------300----250-------150-----------25--------------------------------------------
6---------300----250----------------------25--------------------------------------------
7---------300----250----------------------25--------------------------------------------
8---------300----250----------------------25--------------------------------------------
9---------------------------------------------------------20-----------100------1000U.I. cada 2 días
10--------------------------------------------------------20-----------100------1000U.I. cada 2 días
11--------------------------------------------------------20-----------50------------------------------
#431135 por Ermac87
Lun Oct 24, 2011 4:53 am
durante el ciclo dicen que el liv52 o cardo mariano, pero yo no tomaria nada, esperaria al acabar como mucha gente se dice que se estresa aun mas el higado.... yo meteria wins las 4 ultimas semanas.

Un saludo
#431136 por Illy
Lun Oct 24, 2011 5:09 am
Como metes mas deca que susta? sobra una semana de oxy ademas que 150mg de oxy es demasiado fuerte
#431137 por Illy
Lun Oct 24, 2011 5:11 am
SEMANA--DECA--SUSTEN--ANAPOLON--PROVIRON--NOLVADEX--CLOMID--PREGNYL
1---------300----500-------50------------25------------10-----------------------------
2---------300----500-------100-----------25------------10------------------------------
3---------300----375-------100-----------25-------------10-----------------------------
4---------300----375-------100-----------25-------------10-----------------------------
5---------300----375----------------------25--------------10----------------------------
6---------300----375----------------------25--------------10----------------------------
7---------300----375----------------------25--------------10-------------------1000U.I. cada 3 días
8---------300----375----------------------25--------------10--------------------1000U.I. cada 3 días
9---------------------------------------------------------20-----------100------
10--------------------------------------------------------20-----------100------
11--------------------------------------------------------20-----------50------------------------------
#431141 por manuel321
Lun Oct 24, 2011 6:14 am
hcg y postciclo mal planteados. Mejor así:
SEMANA--DECA--SUSTEN--ANAPOLON--PROVIRON--NOLVADEX--CLOMID--PREGNYL
1---------300----500-------50------------25------------10-----------------------------
2---------300----500-------100-----------25------------10------------------------------
3---------300----375-------100-----------25-------------10-----------------------------
4---------300----375-------100-----------25-------------10-----------------------------
5---------300----375----------------------25--------------10----------------------------
6---------300----375----------------------25--------------10----------------------------
7---------300----375----------------------25--------------10-------------------
8---------300----375----------------------25--------------10--------------------
9-------------------------------------------25--------------10-----------------1000U.I. cada 3 días
10------------------------------------------25--------------10-----------------1000U.I. cada 3 días
11----------------------------------------------------------30-----------100------------
12----------------------------------------------------------20------------50------
13----------------------------------------------------------20------------50
#431142 por manuel321
Lun Oct 24, 2011 6:18 am
aunque para ser un quinto ciclo, las dosis deberían ser mayores. Siempre y cuando los demás ciclos fuesen con una base anabólica y androgénica.
Por cierto, edad?
#431526 por Russek
Mar Oct 25, 2011 11:07 pm
manuel321 escribió:aunque para ser un quinto ciclo, las dosis deberían ser mayores. Siempre y cuando los demás ciclos fuesen con una base anabólica y androgénica.
Por cierto, edad?

Opino lo mismo si es tu quinto yo subiria las dosis. Porque no posteas los otros cuatro y de ahi partimos. Saludos
#431806 por Illy
Jue Oct 27, 2011 3:40 am
Tambien la dosis depende del tiempo que se haya tirado off.
#431812 por Ermac87
Jue Oct 27, 2011 3:50 am
100 mg las 4 semanas de anapolon es demasiada tralla? osea 2 pastillas al dia? esque asi tenia pensado hacerlo yo
#431813 por Ermac87
Jue Oct 27, 2011 3:52 am
no entiedo porque la primera semana le habeis puesto 50 y las 3 restantes 100. no deberia de ser 100 y las 3 restantes 50 como kick star?=
#431814 por Illy
Jue Oct 27, 2011 3:58 am
Porque la oxy es muuuu jodida y si anapolom que es sin dudar de las mejores oxys que se pueden encontrar la subida de estrogenos que te dara es bestial, por eso 50 para la primera semana y las otras 3 a 100
#432366 por mulero
Sab Oct 29, 2011 10:47 am
tengo 26 años, cuando empecé con esto tenía 19 años y pesaba 73kilos midiendo lo mismo que mido ahora 1,87, vamos que era un desnutri!! con entrenamiento , comiendo mucho y con 4 ciclos llegué a pesar 108, pero ahora, después de 5 meses de vida loca estoy en 97, pero voy subiendo. Todos los ciclos que he hecho hasta ahora han sido con intención de pillar peso:
El primero fue muy flojo, lo hice para probar si me sentaban bien: Con 150 de deca y 250 de suste 8 semanas, con postciclo y protectores y tal.
El segundo con 40 mg/dia de dianabol 4 semanas, bolde 300 mg y suste 500 mg durante 8 semanas y postciclo......
El tercero con anadrol 4 semanas (50, 100,100, 150), bolde 400mg y suste 500mg en 8 semanas .....
El cuanrto igual que el segundo pero le metí winstrol las otras 4 semanas.
Estos 4 ciclos en 4 años, y hace un año y medio que no los uso. Este año quiero darle caña y hacer 3 ciclos en un año. Nunca he tenido problemas de nada, ni gine ni granos ni nada, pero cuando usaba 500 de suste iba por ahí to salido, me follaba hasta las cabras, por eso queria bajar un poco.
Entonces al final el ciclo así??????

SEMANA--DECA--SUSTEN--ANAPOLON--PROVIRON--NOLVADEX--CLOMID--PREGNYL
1--------------300--------500----------50-----------------25------------10-----------------------------
2--------------300--------500----------100---------------25-------------10------------------------------
3--------------300--------375----------100---------------25-------------10-----------------------------
4--------------300--------375----------100---------------25-------------10-----------------------------
5--------------300--------375------------------------------25-------------10----------------------------
6--------------300--------375------------------------------25-------------10----------------------------
7--------------300--------375------------------------------25-------------10-------------------
8--------------300--------375------------------------------25--------------10--------------------
9-------------------------------------------------------------25--------------10------------------------1000U.I. cada 3 días
10-----------------------------------------------------------25--------------10------------------------1000U.I. cada 3 días
11----------------------------------------------------------------------------30-----------100------------
12----------------------------------------------------------------------------20-----------50------
13----------------------------------------------------------------------------20------------50

O le subo las dosis???? ya digo que he tomado antes anadrol (50-100-100-150), que llevo un año y medio sin tomar nada, que no he tenido nunca ningun problema y que este año quiero darle caña. Como le podría dar mas caña a este ciclo?
Entonces nada de protector durante el ciclo??

Gracias
#435272 por elliot
Vie Nov 11, 2011 10:43 am
Si te vale de algo... yo estoy en ciclo ahora y e usado la oxy a 50 , 100 , 100 ,100 , 50 , en estas primeras 5 semanas he subido casi 7 kilos , 6.600 para ser exactos... , Se ke son 4 semanas , pero bueno yo lo he usado asi y creo me ha ido bastante bien , un saludo amigos :)

¿Quién está conectado?

Usuarios navegando por este Foro: Yahoo [Bot] y 0 invitados