2do Ciclo Cipio y Bolde

Hola amigos hace mucho no entraba al chat, es un gusto saludarlos
compañeros por favor me ayudan con este ciclo

Datos:
36 Años
74 Kilos
11% grasa
3 o 4 años en el Gym
Este seria mi segundo ciclo

SEMANA CIPIONATO BOLDENONA ESTANOZOLOL PROVIRON NOVALDEX CLOMID HCG
mg/sem mg/sem mg/EOD mg/ED mg/ED mg/ED iu/E3D
1---------500-------------500------------------------------------------------------------------------------
2======250=========250======================25==========10===================
3---------250-------------250-------------------------------25--------------10---------------------------
4======250=========250======================25==========10===================
5---------250-------------250-------------------------------25---------------10---------------------------
6=======250=========250======================25==========10===================
7----------250-------------250-------------------------------25---------------10---------------------------
8=======250=========250===========50=========25==========10====================
9----------250-------------250----------------50------------25---------------10---------------------------
10=================================50=========25==========10=================100
11-----------------------------------------------50-------------25---------------10------------------------100
12========================================================30=======100==========
13---------------------------------------------------------------------------------20-----------50---------------
14==========================================================20=======50===========

Que les parece?

Hola, me parece que la tabla está muy “desordenada” y recibirás poco feedback, intenta escribirlo de una forma más legible.

En lo que puedo ver a, te diría que pongas la bolde mínimo a 300mg y hagas 10 semanas y no nueve amigo.

Buena Energía!

Gracias Amigo, consulta rapida, si subo a 300 mg la bolde tendría que comprar otro bote-frasco de Bolde, en tal caso si compro otro solo estaría usando 3ml del nuevo, es decir se va desperdiciar 7ml

Será posible subir la bolde a 350 para que sobre tanto?

se me había olvidado un dato, mi primer ciclo fue hace 2 o 3 años aproximado

voy poner mi ciclo de forma mas legible

Opción:1

Semana-----Cipionato-----boldenona-----Estanozolol-----Proviron-----Novaldex-----Clomid-------HCG
---------------mg/sem-------mg/sem--------mg/sem---------mg/ED-------mg/ED-------mg/ED------iu/E3D
1---------------500--------------500-----------------------------------------------------------------------------------
2---------------250--------------250--------------------------------25------------10---------------------------------
3---------------250--------------250--------------------------------25------------10---------------------------------
4---------------250--------------250--------------------------------25------------10---------------------------------
5---------------250--------------250--------------------------------25------------10---------------------------------
6---------------250--------------250--------------------------------25------------10---------------------------------
7---------------250--------------250--------------------------------25------------10---------------------------------
8---------------250--------------250-------------50----------------25------------10---------------------------------
9---------------250--------------250-------------50----------------25------------10---------------------------------
10-------------------------------------------------50----------------25------------10-----------------------------100
11-------------------------------------------------50----------------25------------30-----------------------------100
12--------------------------------------------------------------------25------------20------------100-----------------
13--------------------------------------------------------------------25------------20-------------50-----------------
14--------------------------------------------------------------------25------------20-------------50-----------------

Opción:2

Semana-----Cipionato-----boldenona-----Estanozolol-----Proviron-----Novaldex-----Clomid-------HCG
---------------mg/sem-------mg/sem--------mg/sem---------mg/ED-------mg/ED-------mg/ED------iu/E3D
1---------------250--------------250-----------------------------------------------------------------------------------
2---------------250--------------250--------------------------------25------------10---------------------------------
3---------------250--------------250--------------------------------25------------10---------------------------------
4---------------250--------------250--------------------------------25------------10---------------------------------
5---------------250--------------250--------------------------------25------------10---------------------------------
6---------------250--------------250--------------------------------25------------10---------------------------------
7---------------250--------------250--------------------------------25------------10---------------------------------
8---------------250--------------250--------------------------------25------------10---------------------------------
9---------------250--------------250-------------50----------------25------------10---------------------------------
10--------------250--------------250------------50-----------------25------------10---------------------------------
11-------------------------------------------------50----------------25------------10-----------------------------100
12-------------------------------------------------50----------------25------------30-----------------------------100
13--------------------------------------------------------------------25------------20------------100-----------------
14--------------------------------------------------------------------25------------20-------------50-----------------
15--------------------------------------------------------------------25------------20-------------50-----------------

Opción 3: yo no soy experto pero tal vez haya posibilidad de esta forma, pero mejor ustedes que saben me guían por favor

Semana-----Cipionato-----boldenona-----Estanozolol-----Proviron-----Novaldex-----Clomid-------HCG
---------------mg/sem-------mg/sem--------mg/sem---------mg/ED-------mg/ED-------mg/ED------iu/E3D
1---------------500--------------500-----------------------------------------------------------------------------------
2---------------250--------------350--------------------------------25------------10---------------------------------
3---------------250--------------350--------------------------------25------------10---------------------------------
4---------------250--------------350--------------------------------25------------10---------------------------------
5---------------250--------------350--------------------------------25------------10---------------------------------
6---------------250--------------350--------------------------------25------------10---------------------------------
7---------------250--------------350--------------------------------25------------10---------------------------------
8---------------250--------------350--------------------------------25------------10---------------------------------
9---------------250--------------350-------------50----------------25------------10---------------------------------
10--------------250--------------350------------50-----------------25------------10---------------------------------
11-------------------------------------------------50----------------25------------10-----------------------------100
12-------------------------------------------------50----------------25------------30-----------------------------100
13--------------------------------------------------------------------25------------20------------100-----------------
14--------------------------------------------------------------------25------------20-------------50-----------------
15--------------------------------------------------------------------25------------20-------------50-----------------

De que procedencia son tus roids? Farma y vet o estas usando de lab under?
Dependiendo de la respuesta, serán las dosis.

Lee éste hilo, aqui viene explicado paso a paso como se arma y de hecho esta posteado correctamente un ciclo como el que quieres hacer

http://www.tupincho.net/foro/viewtopic.php?f=75&t=58495

Son Under
los de Vet traen muy copos mg, entonces prefiero under

Al parecer lo estoy planteando bien, solo me falta consejos con la cantidad de los roids

Mal!! Y crees que los under tienen las dosis que indican?? claro que no, no se compara la calidad de un under vs un veterinario, 100% mejor usar de vet y farma que cualquier under. Aun laboratorio veterinario o farmaceutico hay instituciones que los regulan, a un under nadie lo regula, bien podrian meterle mierda a un vial y no sabrías que es lo que te estarías metiendo al cuerpo.

Pero bueno, la decisión final es tuya.
Saludos

en Costa Rica es dificl conseguir de farmacia, lo unico que se consigue es sostenon en la presentación pequeña 1ml/250mg
y deca 1ml/50mg

veterinario
bolde 1ml/50mg,

para un ciclo de 300mg ocuparía 2 pinchazos de bolde + los de testo (4 pinchazos x semana)

mmm ok lo voy analizar, yo se tienes razon, las calidades son muy superiores

Pues no necesitas mas que eso para hacer un buen ciclo básico. Ademas para que tanto pincho? a lo mucho necesitas dos, se puede mezclar sustancias en una sola jeringa mientras sean la misma base, en este caso la bolde, susta o deca son aceite.

Somos de tiquicia calidad mae…
Mae te recomiendo 100% usar roids vet o de farma, como dicen los amigos en el hilo, ya que son regulados y sabes que mg x mg es la cantidad que se indica, y los resultados son mayores(acompañado de dieta y rutina) subi la boldenona 300 mg a 400mg, yo estoy haciendo un ciclo con sostenon y bolde… pregunta, donde preguntaste por el sostenon, por que está agotado a nivel nacional :frowning:

preguntando en farmacias fuera de San José, yo soy agente de ventas entonces ando por todo el pais, en zonas como Guanacaste, San Carlos si hay