Ayuda Ciclo (Animal24)

hola, quería postear mi ciclo aver que tal lo veis.
Edad=24 Peso=77kl Altura=1,75 buena musculatura entreno desde hace 6 años, 2 ciclos.El primero fue de (volumen) ace 3 años.testosterona, deca, winstrol y diana. y el 2º fue ace 1 año,(definición) winstrol, primobolan. Sobre la dieta siempre como sano y desde ace un mes, dieta estricta y pesada, para ir limpiando y subir lo mas limpio posible.

SEMANA------SUSTA------DECA-------D-BOL-------ARIMIDEX------OMIFIN-------HCG
----------------------------------------------------------eod-----------ed--------1semana
1-------------- 250---------200---------15
2---------------250---------200---------20-------------0,5
3---------------250---------200---------20-------------0,5
4---------------250---------200---------20-------------0,5
5---------------250---------200-------------------------0,5
6---------------250---------200-------------------------0,5
7---------------250---------200-------------------------0,5
8---------------250---------200-------------------------0,5
9---------------------------------------------------------0,5
10--------------------------------------------------------0,5----------100---------2500ui
11---------------------------------------------------------------------- 50---------2500ui
12-----------------------------------------------------------------------50

-El HCG que tengo es el de 2500ui por ampolla, por eso lo pongo una vez por semana osea el lunes de la semana10y11.
-El ARIMIDEX, tomaría media pastilla, día si día no.(0,5)
-El DIANABOL,lo tomaria de lunes a viernes y en esas cantidades pa no cojer mucho liquido.
““PREGUNTAS””
1¿El arimidex durante el ciclo (solo), o debería de acompañarlo de proviron?¿debería de alargar la toma de arimidex asta la ultima semana del post ciclo?
2¿las cantidades de sustanon y deca serán bajas para ser mi 3º ciclo?¿si es así, cual seria la ideal, tendría que subirlas?¿en caso de subir las dosis tendria que subir la toma de arimidex o meter algun protector mas?
4¿en el post ciclo aria falta nolvadeX?

Espero que podais ayudarme. UN SALUDO

solo para notificarte que los dos hilos adicionales a este an sido borraods por ser una copia del presente.
en el futuro favor de evitar esta practica

David32270

Pero cuantos hilos sobre el mismo ciclo has abierto?!!! :o

Bueno el ciclo en lineas generales lo veo bien, el dianabol dosis “lineales” 20-25 mg y se toma Ed.

El arimidex lo veo una opción cara, yo haria el clasico antiestrogénico de 25 de provi + 10 de nolva durante el ciclo… pero si ya lo tienes comprado usalo!

Las cantidades las veo bien, teniendo en cuenta tu peso aunque tal vez podrias meter 375 de testo y 300 de deca.

El nolva en post haz a la par que con el Clomid 30-20-10.

perdonar por repetir el hilo, soy nuevo en el foro y todavia ando algo despistado. gracias por tu respuesta mav3rick11 y por la ayuda que me as ofrecido esta mañana.
“post ciclo”
SEMANA NOLVADEX OMIFIN HCG
10----------30----------100-----2500UI
11----------20-----------50-----2500UI
12----------10-----------50
¿Es asi como dises mav3rick11?

si pero en realidad esas dos semanas de HCG serian 1000 UI E3D.

Amigo Animal24

Te recomiendo que leas hacerca de le uso del HGC durante el ciclo este seria a rason de 500 ui E5D

saluods

la HCG mejor E5D por tu peso yo diria que le aumentaras al deca, no has pensado usar Winny para terminar?

el problema del HCG es que el que tengo es el de 2500ui y no me a sido pocible consegir el de 1000ui. el arimidex lo tengo por que me salio barato y me gustaria usarlo aver que tal.

Hola animal24,

Como te dijo Mav3rick11 creo que subiría algo las dosis, sobre todo porque ya sería tu tercer ciclo.
El HCG lo metería en las semanas 9 y 10 a razón de 1000 UI E3D. Recuerda que la HCG no debe meterse JUNTO con los SERMs.
Los SERMs (clomid y tamoxifeno) irían a partir de la semana 11. Es decir en las semanas 11, 12 y 13 a las dosis que ya pusiste en un mensaje anterior.

Re: Ayuda Ciclo (Animal24)

Enviado a: Mié Ene 06, 2010 3:13 pm
por animal24
Amigo Animal24

Te recomiendo que leas hacerca de le uso del HGC durante el ciclo este seria a rason de 500 ui E5D

el problema es qe tengo solo el hcg de 2500ui. sabrias alguna manera de aprobecharlo en mi siclo?

Según el ciclo posteados tienes 5000 ui todo lo que tienes que hacer es dividirlas

Usando 5 ml Solución fisiológica estéril mézclalo con 2500 ui esto te dará una solución de 500ui por cada 1ml

Solo busca en el portal como conservar este suero por las 6 o 8 semanas del ciclo

SEMANA------SUSTA------DECA-------D-BOL-------ARIMIDEX------OMIFIN-------HCG------NOLVADEX
----------------------------------------------------------eod-----------ed--------1semana
1-------------- 250---------300---------20
2---------------250---------300---------20-------------0,5
3---------------250---------300---------20-------------0,5
4---------------250---------300---------20-------------0,5
5---------------250---------300-------------------------0,5
6---------------250---------300-------------------------0,5
7---------------250---------300-------------------------0,5
8---------------250---------300-------------------------0,5
9---------------------------------------------------------0,5-----------------------1000ui
10----------------------------------------------------------------------------------1000ui
11----------------------------------------------------------------------100-----------------------30
12-----------------------------------------------------------------------50-----------------------20
13-----------------------------------------------------------------------50-----------------------10

¿que os parece? ¿deveria alargar mas el arimidex? y por ultimo ¿ no ac falta meter proviron si se usa arimidex? y muchas gracias por la ayuda que me estais ofreciendo.
por cierto un amigo me dijo que metiera una ampolla de 2500ui de hcg en la semana 4 y en la 10 metiera una cada 3 dias aciendo un total de 7500ui. en esa semana. el lo a echo y no es ningun novato, ya a competido. ¿que opinais de esto? e mirado viejos ciclos y se solia acr,¿an cambiado las dosis por nuevos estudios? ayuda con este tema del hcg que me tiene loco gracias

has considerado el wistrol de salida?

es que le tengo miedo al winstrol jakajkaj son muchos pinchasos, ya e que apreta y da calidad pero es solo por que no quiero terminar como un coladero

SEMANA------SUSTA------DECA-------D-BOL-------ARIMIDEX------OMIFIN-------HCG------NOLVADEX
----------------------------------------------------------eod-----------ed--------1semana
1-------------- 250---------300---------20
2---------------250---------300---------20-------------0,5
3---------------250---------300---------20-------------0,5
4---------------250---------300---------20-------------0,5
5---------------250---------300-------------------------0,5
6---------------250---------300-------------------------0,5
7---------------250---------300-------------------------0,5
8---------------250---------300-------------------------0,5
9---------------------------------------------------------0,5-----------------------1000ui
10----------------------------------------------------------------------------------1000ui
11----------------------------------------------------------------------100-----------------------30
12-----------------------------------------------------------------------50-----------------------20
13-----------------------------------------------------------------------50-----------------------10

¿que os parece? ¿deveria alargar mas el arimidex? y por ultimo ¿ no ac falta meter proviron si se usa arimidex? y muchas gracias por la ayuda que me estais ofreciendo.
por cierto un amigo me dijo que metiera una ampolla de 2500ui de hcg en la semana 4 y en la 10 metiera una cada 3 dias aciendo un total de 7500ui. en esa semana. el lo a echo y no es ningun novato, ya a competido. ¿que opinais de esto? e mirado viejos ciclos y se solia acr,¿an cambiado las dosis por nuevos estudios? ayuda con este tema del hcg que me tiene loco gracias,

Yo llevaría el a-dex hasta la semana 10.

Esa recomendación de meter un pincho de HCG en la mitad, tiene una base lógica (reactivar los testículos en caso de atrofia), pero en esas dosis (2500 UI x vez ó más) NO DEBE HACERSE porque puede tener un “efecto rebote”.

Para evitar la atrofia es que se recomienda usarlo a razón de 500 UI E5D desde la semana 2 del ciclo.

Pero con las dosis de tu ciclo, la verdad que como está, como un PCT convencional me parece bien.
Sin embargo, siempre podrás decidirte por meterlo a todo lo largo del ciclo.


Tienes 2 posts cierro el otro… 8)

No entiendo por qué la gente abre 2 post… Es fatal. Da más trabajo, congestiona al portal y el usuario NO LLEGA A NINGUNA CONCLUSIÓN DEFINITIVA!!!