ayuda con mi ciclo de trembolona, winstrol y primobolan

hola buen dia a todos los foristas, estoy por iniciar un ciclo de definicion ya que mi intencion es competir por primera ves en este invierno para lo cual arme este ciclo de rayado y espero su opinion para para poder obtener buenos resultados con mi ciclo, mis datos son altura 170cm, 82 kg, 25años,2 años de entreno y mas o menos el 16% de grasa.
el ciclo es el siguiente

sem------wyny(mg/eod)-----primo(mg)---------trembol(mg)-------hcg-(ui)------priviron(mg)
1----------50--------------------100-----------------100-------------------------------------25--------
2----------100-------------------100-----------------100-------------------------------------25--------
3----------150-------------------100-----------------100-------------------------------------25-----------
4----------150-------------------100-----------------150-------------------------------------25------------
5----------150-------------------100-----------------150-------------------------------------25-------------
6----------150-------------------100-----------------150-------------------------------------25-------------
7----------150-------------------100-----------------150-------------------------------------25---------------
8----------150-------------------100-----------------100-------------------------------------25---------------
9----------100-------------------100------------------------------------1000ui---------------25---------------
10----------50-------------------100------------------------------------1000ui---------------25---------------
11----------------------------------------------------------------------------------------------25-----------
las semanas 10 y 11 metere una pastilla de logalon todas las noches, no se si debo meter clomid y nolvadex , me podrian dar su opinion con respecto al armado del ciclo , mi interes es rayar lo mas posible tengo mi dieta y todo , pero deseo saber si mi ciclo esta bien armada o si algo le falta o le sobra, de antemano les agradesco mucho su ayuda, saludos a todos .

  1. FALTA TESTO!!!
  2. Necesitas nolva y clomid, si solo utilizas hcg no recuperaras tu eje hormonal.
  3. Muy pocos te aconsejaran trenbo en un primer ciclo.
  4. Irias bien con test- propio y winny y primobolan pero a dosis mas altas, 100mg es demasiado poco.
  5. No hagas piramides, escoge una dosis y kedat con ella.

Sino utilizas testo, vas a poner a tu amigo a invernar por un buen tiempo. La trenbo es cosa seria, es decir, aparte de su efectividad, tiene sides bastante feos k debes saber prevenir, y controlar en caso de k aparezcan. Ademas, igual puedes ir bien en un primer ciclo sin ella.

creen que la trembolona sea en verdad demasiado para este ciclo, ya que los roids ya los tengo y me costo mucho trabajo conseguirlos la trembolona es marca xlabs y es a razon de 100 mg , el primovolan como seria la mejor manera de administrarlo a 150 mg , o a 200 mg, y pues creo que si quitare la piramide y el winstrol lo administrare a razon de 150 mg apartir de la segnda semana.
como ven podrian aconsejarme sobre la trembolona por favor

yo veo demasiadas semanas de wintrol la verdad no pasaria mas de 8 semanas EOD 150mg

perdona 6 semanas :smiley:

Semana 4-10 Winstrol 150mg EOD
4-10 Primobolan 200mg EOD por tu peso 100mg casi te hara efecto

Que me corrijan los especialistas

-.SALUDOS

Creo que ya te dijeron bastantes cosas… falta una testo, no usaría jamás trembo en un primer ciclo, desmasiadas semanas de winstrol. El PCT está fatal, el legalón se usa antes y después del ciclo, no durante… En fin, eso es a primera vista…