Ayuda con Mi Ciclo Win + Deca + Testo

Antes de nada Saludos y Gracias.

LLevo tiempo Leyendo e informandome, leyendo Faq, guias de ciclos y me he decidido hacer un ciclo pero necesito consejos, quiero un ciclo para ganar massa magra y despues acabar con algo de definicion, espero consejos .

Edad : 24 Años
Peso : 78 Kilos
Indice de masa corporal 11 %
llevo entrenando 4 años y hago una alimentacion buena y ahora estaba preparandome con mi primer ciclo No oral , he probado Cynostane y alguno mas ,

Voy a intenar estructurarlo y agradecidia consejos, ya que voy a comenzarlo pronto, gracias

Semana Testovirol Wins Deca Primobolan Proviron Nolvadex Clomid HCG (UI/E3D)
1-----------200-------150—250------------------25-------10----------------------------
2-----------200-------150—250------------------25-------10----------------------------
3-----------400-------150—500------------------50-------20----------------------------
4-----------600-------150—500------------------50-------20----------------------------
5-----------400-------150—250------------------50-------20----------------------------
6-----------200-------150—250------------------50-------20----------------------------
7----------------------150------------200---------25-------20----------------------------
8----------------------150------------400----------------------------------------------
9----------------------150------------400----------------------------------------------
10-------------------- 150------------200----------------------------------------------
11------------------------------------------------------------30---------100----------1000
12 -----------------------------------------------------------20---------100----------1000
13 -----------------------------------------------------------20---------100----------1000

Mi gran duda es la forma de utilizar poviron y noval cuando acabe con el deca y el testo ya que el primo y el wi aromatizan poco, pero los efectos de los demas seguiran unas semanas

Todo esto con dieta, glutamina, protes y descansando

Muchas gracias a todos los que llevais mas tiempo en esto y un Saludo feliz año

Bueno el ciclo que as expuesto esta mal, las dosis ya no se hace piramidales se hacen lineales, para ser tu primer ciclo deberias meter 250mg de testo y alargarlo a 8 semanas minimo, el deca deberias meter 200mg durante todo el ciclo a razon de 8 semanas, el wins se suele usar nada mas de salida a razon de 50mg dia si y dia no y se usa de la semana 7 a la 10, el primobolan es tonteria usarlo ya que vas a usar deca y te va a inflar como un globo, asi que no lo uses.

Muchas gracias por responder, entonoces que me aconsejas 150 wi la primera semana Lunes miercoles y viernes y despues hasta 7 .

Lo de la piramide nose si hacer o no piramide o no me gustaria la opininion de alguien mas que haya probado, lo que nose es a lo que te refieres del primo, si es para deficion

( quedaria mejor algo asi?)
Semana Testovirol Wins Deca Primobolan Proviron Nolvadex Clomid HCG (UI/E3D)
1-----------200-------150—250------------------25-------10----------------------------
2-----------200--------------250------------------25-------10----------------------------
3-----------400--------------500------------------50-------20----------------------------
4-----------400--------------500------------------50-------20----------------------------
5-----------200--------------250------------------50-------20----------------------------
6-----------200--------------250------------------50-------20----------------------------
7-----------200------ 150—250---------200-----50-------20----------------------------
8-----------200-------150—250---------400-----50-------20---------------------------------
9----------------------150----------------400---- 25--------20--------------------------------
10-------------------- 150----------------200----------------------------------------------
11------------------------------------------------------------30---------100----------1000
12 -----------------------------------------------------------20---------100----------1000
13 -----------------------------------------------------------20---------100----------1000

semana…deca(ew)…sustanon(ew)…winy(eod)…proviron(ed)…tamo(ed)…hcg(e3d)…clomid
1…200…250…
2…200…250…25…10…
3…200…250…25…10…
4…200…250…25…10…
5…200…250…25…10…
6…200…250…25…10…
7…200…250…50…25…10…
8…200…250…50…25…10…
9…50…25…10…1000…
10…50…25…10…1000…
11…30…100
12…20…50
13…20…50

asi mucho mejor…

no es necesario usar primo…

porq vaz de salida con el winy… para salir apretado…

Al final me he estado informando mas y voy a decidir hacerlo lineal con una carga al principio , para pillar todo desde la 2 Semana

Quedaria algo asi

Semana Testovirol Wins Deca--------------- Proviron Nolvadex Clomid HCG (UI/E3D)
1-----------600--------------750------------------25-------10----------------------------
2-----------250--------------250------------------50-------20----------------------------
3-----------250--------------250------------------50-------20----------------------------
4-----------250--------------250------------------50-------20----------------------------
5-----------250-------100—250------------------50-------20----------------------------
6-----------250-------100—250------------------50-------20----------------------------
7-----------250------ 150—250------------------50-------20----------------------------
8-----------250-------150—250------------------50-------20-----------------------------
9----------------------150-------------------------25-------10-----------------------------
10-------------------- 150-------------------------25-------10--------------------------
11---------------------150-------------------------25-------10----------------------1000
12 --------------------150-----------------------------------30---------100---------1000
13 -----------------------------------------------------------20---------50----------1000
14 -----------------------------------------------------------20---------50----------

Quitare el primo y metere solo winy para ir saliendo

donde sigo teniendo dudas es cuando acabe con el testo y el deca , si tomar novaldex y Clomid o esperar acabar con el winy

Que me deciS?
Gracias! por las respuestas

nadamas usa el winy de salida…

asi…

semana…deca(ew)…sustanon(ew)…winy(eod)…proviron(ed)…tamo(ed)…hcg(e3d)…clomid
1…200…250…
2…200…250…25…10…
3…200…250…25…10…
4…200…250…25…10…
5…200…250…25…10…
6…200…250…25…10…
7…200…250…50…25…10…
8…200…250…50…25…10…
9…50…25…10…1000…
10…50…25…10…1000…
11…30…100
12…20…50
13…20…50

mucho hcg quieres usar… debe de ser 5000 ui en total… por 2 semanas…

si kieres hacer un front load… hazlo las primeras 2 semanas 500 de testo y 400 de deca

usa el proviron y novaldex hasta la semana 10

no es necesario usar tanto proviron con 25 mg y 10 de novaldez vaz sobrado…

y lo puedes usar desde la 2 semana…

el front load ya te comente 500 de testo y 400 de deca por 2 semanas nadamas…

como te puse el ciclo realizalo… no como lo pones tu…

el hcg no se usa en el potciclo…

y es mucho hcg el q estas usando… con 5000 ui estas mas q sobrado…

el winy usalo en la semana 7 8 9 y 10 50 mg dia si … dia no…

el novaldex y el comid se tomaran en la semana 11, 12 y 13 es el potsciclo…

1º Muchas gracias por tu ayuda, Zamoracity

Hare el front load pero usare 500 de deca,

El winy cuando pongo 150 es dia si dia no 3 dias en total^, como tu dices esque como pones 50 es lo mismo.

El poviron y novaldex tu me aconsejas esas cantidades pero en muchos sitios veo que las dosis conservadoras son 50 y 20 y no me fio ,

Al final lo voy hacer asi, quiero usar mas winny para no ir subiendo masa magra e ir apretando mientras ,

Gracias por lso consejos haré lo de la ui nada mas acabar con el deca y testo

Semana Testovirol Wins Deca--------------- Proviron Nolvadex Clomid HCG (UI/E3D)
1-----------500--------------500------------------25-------10----------------------------
2-----------500--------------500------------------25-------10----------------------------
3-----------250--------------250------------------50-------20----------------------------
4-----------250--------50—250------------------50-------20----------------------------
5-----------250-------100—250------------------50-------20----------------------------
6-----------250-------100—250------------------50-------20----------------------------
7-----------250------ 150—250------------------50-------20----------------------------
8-----------250-------150—250------------------50-------20-----------------------------
9----------------------150-------------------------25-------10-------------------------1000
10-------------------- 150-------------------------25-------10-------------------------1000
11---------------------150-------------------------25-------10----------------------
12 -----------------------------------------------------------30---------100---------
13 -----------------------------------------------------------20---------50----------
14 -----------------------------------------------------------20---------50----------

Hola este ciclo lo voy hacer yo y es como lo dice Zamoracity y se pone 50mg porque si te fijas bien en la tabla que te ha posteado Zamoracity pone al lado de Wins ( eod) que es dia si y dia no pero si tu pones 150mg aunque vayas hacerlo dia si y dia no la gente se confunde asi que cuando postes la tabla ponle a cada sustancia cada cuando te la vas a aplicar asi la gente te podra ayudar mejor, te vuelvo a poner la tabla de Zamoracity para que la compares y esta misma es la que voy a realizar yo pero en vez de hacer el front load metiendo mas deca y susta es metiendo dianabol 4 semanas a razon de 25mg (Ed).

semana.dianabol(ed).deca(ew).sustanon(ew)Wins(eod)proviron(ed)…tamo(ed)…hcg(e3d)Clomid(ed)
1…25…200…250…
2…25…200…250…25…10…
3…25…200…250…25…10…
4…25…200…250…25…10…
5…200…250…25…10…
6…200…250…25…10…
7…200…250…50…25…10…
8…200…250…50…25…10…
9…50…25…10…1000…
10…50…25…10…1000…
11…30…100
12…20…50
13…20…50

Hola, Gracias por el apunte Machete Un saludo

ya veras q no es necesario tanto proviron y tamoxifeno… con 25 mg de proviron y 10 de tamoxifeno esta ok…

a menos q tengas problemas de gine…

y si es asi mejor usar arimidex…