AYUDA Primer Ciclo (Susta - Bolde - Diana)

Hola… estoy planeando hacer un ciclo pronto y necesito algunas asesorias de los expertos del foro con respecto a esto, el ciclo que he armado hasta ahorita esta asi… kisiera saber si asi me sirva o subo la dosis de testo y bolde a 500 y 400 ?
Tengo 23 mido 1.81 i pesos 87 kilo actualmente tengo un poco de sobre peso pero primero bajare un poco de peso *grasa) y mi objetibo es kedar en alrededor de 90 kilos con mucha masa muscular para posteriormente aser algun ciclo de marcado (mas adelante que me recupere del bolsillo) ustedes como ven este ciclo a por cierto tengo mas de 4 anios entrenando tengo algun tiempo sin entrenar primero recuperare el ritmo unos 3 o 4 meses con suplementos i despues hacer el ciclo.

Semana Soste(mg/sem) Bolde(mg/sem) Diana(mg/dia) Nolva(mg/d) Provi(mg/d) Clomi HCG
1-----------250-------------300-----------------25-------------10-------------25-----------------------
2-----------250-------------300-----------------25-------------10-------------25-----------------------
3-----------250-------------300-----------------25-------------10-------------25-----------------------
4-----------250-------------300-----------------25-------------10-------------25-----------------------
5-----------250-------------300--------------------------------10-------------25-----------------------
7-----------250-------------300---------------------------------10-------------25-----------------------
8-----------250-------------300---------------------------------10-------------25-----------------------
9-----------------------------------------------------------------20-------------25------------------------
10-----------------------------------------------------------------20------------25--------------------------
11-----------------------------------------------------------------20------------25------------100----2500
12-----------------------------------------------------------------20------------25------------50------------
13-----------------------------------------------------------------20------------25------------50-----2500

tambien quisiera saber en que presentaciones y marcas venden boldenona en veterinaria en mexico

La bolde 8 semanas no se me hace bien, la cortaras cuando apenas esta empezando a funcionar. Si yo subiría las dosis y alargaría el ciclo para que funcione bien debido a tu peso.

Semana 1- 10: Boldenona 600 mg EW
Semana 1-8: Soste 500 mg EW
Semana 9-12: Winstrol 100 mg EOD
Semana 9-12: Propionato testo 100 mg EOD

Supongo que el diana lo utilizaras como kickstart.

El post-ciclo yo lo vería mejor así:

Sem-------------Nolvadex-------HGC----------clomid
13--------------30 mg ED------2500 UI E3D-----------
14--------------30 mg ED------2500 UI E3D—100 mg ED
15--------------20 mg ED--------------------50 mg ED
16--------------20 mg ED--------------------50 mg ED

Es un ciclo bueno y que da buenos resultados, pero te recuerdo que todo es un balance entre dieta, entreno, descanzo.

Un saludo!

Gracias Sellenator tienes razon con lo de la bolde 10 sem estube leyendo mas e identifique eso, mmm no crees que talves poniendo la bolde a 400 por ser mi primer ciclo estaria bien digo la vdd no creo poder sustentar tanta bolde si de por si apenas tengo la plata para todo el ciclo asi, y tener que suvir la testo tmb va a subirlo bastante. Y lo del winstrol y propionato no se podria dejar para hacer otro ciclo mas adelante?

Sem Soste(mg/sem) Bolde(mg/sem) Diana(mg/dia) Nolva(mg/d) Provi(mg/d) Clomi HCG
1-------500-------------400-----------------25-------------10-------------25-----------------------
2-------500-------------400-----------------25-------------10-------------25-----------------------
3-------500-------------400-----------------25-------------10-------------25-----------------------
4-------500-------------400-----------------25-------------10-------------25-----------------------
5-------500-------------400---------------------------------10-------------25-----------------------
7-------500-------------400---------------------------------10-------------25-----------------------
8-------500-------------400---------------------------------10-------------25-----------------------
9------------------------400---------------------------------10-------------25------------------------
10-----------------------400---------------------------------10------------25--------------------------
11------------------------------------------------------------10------------25--------------------------
12------------------------------------------------------------10------------25---------------------------
13------------------------------------------------------------30------------25------------100-----2500E3D
14------------------------------------------------------------30------------25-------------50------2500E3D
15------------------------------------------------------------20------------25--------------50---------------

MI opinión es que si te vas a tocar el eje pues le saques el máximo provecho! Si las cantidades se te hacen muy grandes podrias hacer esto.

Semana 1-10: bolde 400 mg EW
Semana 1-10 : Soste 375 mg EW

Porque 10 semanas de sustanon? Porque si vas a cortar la bolde en la 10 no tiene caso que cortes el susta en la 8, ya que su vida media es practicamente = de larga.

La sugerencia que te di de usar propionato y winstrol de la semana 9-12 a 100 mg EOD es para salir lo mas seco posible, y para que estés a gusto con los resultados.

Yo se que es mucho dinero, creeme, yo estoy haciendo el ciclo que te sugerí solo que con un kickstart diferente y dosis diferentes, pero si lo vas a hacer, sacale el maximo provecho.

Tambien puedes checar los links de guia de primer ciclo de malaga, o ciclos basicos de manuel321, son buenos ciclos para novatos como nosotros y accesibles economicamente.

Un saludo!

Yo te planteo lo siguiente, es tu primer ciclo amigo no veo necesidad de aumentar la dosis de testo, aunque la bolde puedes dejarla en 400, bueno vamos con mi planteamiento:

Sem Soste(mg/sem) Bolde(mg/sem) Diana(mg/dia) Nolva(mg/d) Provi(mg/d) Clomi HCG
1-------250-------------400-----------------25-------------10-------------25-----------------------
2-------250-------------400-----------------25-------------10-------------25----------------500------
3-------250-------------400-----------------25-------------10-------------25----------------500-------
4-------250-------------400-----------------25-------------10-------------25----------------500-------
5-------250-------------400---------------------------------10-------------25----------------500-------
7-------250-------------400---------------------------------10-------------25----------------500------
8-------250-------------400---------------------------------10-------------25----------------500-------
9-------250-------------400---------------------------------10-------------25----------------500-------
10------250-------------400---------------------------------10------------25-----------------500-------
11------------------------------------------------------------10------------25--------------------------
12------------------------------------------------------------10------------25---------------------------
13------------------------------------------------------------30-------------------------100----------
14------------------------------------------------------------30--------------------------50------------
15------------------------------------------------------------20--------------------------50---------------

jcessarx

jcessarx, muchas gracias por tu consejo, de hecho asi me parece bien planteado el ciclo, solo una duda con lo del hcg solo lo habia visto en el postciclo, porque lo pones a lo largo de todo el ciclo?

Es la otra opcion para el uso de HCG, ya que se ha demostrado que este modo de aplicacion evita la atrofia testicular durante el ciclo, entonces tus gonadas llegaran activas al final del ciclo lo cual hara que tengas una mas rapida y mejor recuperacion de tu eje.

jcessarx

Y se aplican 500 UI a la semana?

Disculpa, se me fue ese detalle, es 500 UI/E5D (cada 5 días).

Exacto, primer ciclo dosis basicas y grandes resultados siempre van de la mano :mrgreen:

mav3rick, gracias por tu aporte, tu crees ke sin importar mi peso, consdero que tengo buen volumen y peso para mi altura, por ser mi primer ciclo me de buenos resultados con la dosis de soste de 250 semanal?

Sin duda!

En el primer ciclo si haces las cosas bien, siempre obtienes las mejores ganancias, incluso mayores que en los ciclos posteriores usando mucha mayor dosificación.

Entonces el ciclo quedaria asi, lei en algun foro que para evitar efectos catabolicos se puede tomar clenbuteron que opinana de esto?

Sem Soste(mg/sem) Bolde(mg/sem) Diana(mg/dia) Nolva(mg/d) Provi(mg/d) Clomi HCG
1-------250-------------400-----------------25-------------10-------------25-----------------------
2-------250-------------400-----------------25-------------10-------------25-------------------500------
3-------250-------------400-----------------25-------------10-------------25---------------- -500-------
4-------250-------------400-----------------25-------------10-------------25-------------------500-------
5-------250-------------400---------------------------------10-------------25-------------------500-------
7-------250-------------400---------------------------------10-------------25-------------------500------
8-------250-------------400---------------------------------10-------------25-------------------500-------
9-------250-------------400---------------------------------10-------------25-------------------500-------
10------250-------------400---------------------------------10------------25--------------------500-------
11------------------------------------------------------------10------------25--------------------------
12------------------------------------------------------------10------------25---------------------------
13------------------------------------------------------------30-------------------------100----------
14------------------------------------------------------------30--------------------------50------------
15------------------------------------------------------------20--------------------------50---------------

La estructura de tu ciclo está perfecta, el clembu te ayudará sobre todo para soltar la retención hídrica, saludos