Bitácora OMS primer ciclo

Hola buenos dias , noches y demas… :slight_smile:
Me presento , mi nombre es OmS, tengo tiempo leyendo este foro tan maravilloso, ya tengo un tiempo entrenando para competencia, y me ha hido bien, he aprendido mucho de este.
He tenido buenos progresos al natural, pero creo que ya es hora de empezar a destacar dentro de los hierros.
Estoy planeando hacer un ciclo para diciembre, y apesar de que ya se muchas cosas como tanto del ciclo como el PCT, sigo siendo un principiante en esto asi que recurro a su ayuda de antemano gracias :

el plan es el siguiente:

TIPO DE CICLO:
[/url]
http://www.tupincho.net/Ciclos_de_esteroides_anabolicos/ciclo-minicicilo-doble-de-6-semanas-a259.html
Edad :21
Teimpo entrenando : 2 años
EStatura : 1.76
peso: 75
% : 13
Objetivo: Ganancia de volumen y definicion
P.D: mi primera duda es si este ciclo es el adecuado, para mi.
gracias¡¡¡

Re: BITACORA OMS PRIMER CICLO

Hechale un vistazo a los ciclos basicos

http://www.tupincho.net/foro/ciclos-basicos-t31742.html

Pd: volumen y definicion es imposible

Re: BITACORA OMS PRIMER CICLO

Noo los ciclos orales son los mas toxicos
Pasate por el link que te dejo lilly agarra uno de ellos como base y despues planteas tus dudas o algo

Re: BITACORA OMS PRIMER CICLO

Hola illy gracias por el link de ciclos basicos, solo que me deje llevar por el ciclo que esta en el inicio de la pagina, decia para masa y definicion. Por el tipo de sustancias crei que era posible ganar masa y en 6 semanas y en las siguientes 6 definicion, como dice el ciclo, sin saturar a los receptores.
y pues a lo que comentan que son los mas toxicos pues solo el proviron es oral y el anadrol, no creo que sea tanta la carga hepatica o que opinan, ahi esta el ciclo. GRACIAS

Sem Decamg/ew Anadrol mg /ed Proviron mg/ed Nolvadex mg/ed Primobolan mg/w Winstrol mg /w
1 200 50 25 10
2 300 100 50 20
3 400 100 50 20
4 400 100 50 20
5 400 100 50 20
6 200 50 25 20
7 25 10
8
9 200 150 10 200 150
11 300 300
12 300 300
13 300 150
14 200 150
15
16

PD. Como ya no me cupo recorte el clomid y el HCG, pero los utilizaria en la semana 7 y 8
clomid 50mg/dia y hcg 2500 U.i
Luego en las semanas 14 ,15 y 16 utilizaria Clomid 50mg/dia c y hcg5000 U.i
Eso sin olvidar el liv.52
Que opinan pueden ayudarme?

  • Reporte este mensaje
    • Responder citando

Re: BITACORA OMS PRIMER CICLO

Notapor OmS » Mar Oct 04, 2011 11:52 am
Hola illy gracias por el link de ciclos basicos, solo que me deje llevar por el ciclo que esta en el inicio de la pagina, decia para masa y definicion. Por el tipo de sustancias crei que era posible ganar masa y en 6 semanas y en las siguientes 6 definicion, como dice el ciclo, sin saturar a los receptores.
y pues a lo que comentan que son los mas toxicos pues solo el proviron es oral y el anadrol, no creo que sea tanta la carga hepatica o que opinan, ahi esta el ciclo. GRACIAS

Sem Decamg/ew Anadrol mg /ed Proviron mg/ed Nolvadex mg/ed Primobolan mg/w Winstrol mg /w
1----------200 ----------50 --------------25----------------10------------------------------------------------
2 ---------300----------100---------------50----------------20------------------------------------------------
3 ---------400----------100---------------50----------------20------------------------------------------------
4 ---------400----------100---------------50----------------20------------------------------------------------
5 ---------400----------100---------------50----------------20------------------------------------------------
6 ---------200-----------50---------------25----------------20-------------------------------------------------
7 ------------------------------------------25----------------10------------------------------------------------
8----------------------------------------------------------------------------------------------------------------
9-------------------------------------------------------------------------------200-------------------------150
10-------------------------------------------------------------------------------200------------------------150
11 ------------------------------------------------------------------------------300------------------------300
12-------------------------------------------------------------------------------300------------------------300
13 ------------------------------------------------------------------------------300------------------------150
14-------------------------------------------------------------------------------200------------------------150
15--------------------------------------------------------------------------------------------------------------
16--------------------------------------------------------------------------------------------------------------
(DISCULPEN NO SALIO BIEN ARRIBA) :lol:
PD. Como ya no me cupo recorte el clomid y el HCG, pero los utilizaria en la semana 7 y 8
clomid 50mg/dia y hcg 2500 U.i
Luego en las semanas 14 ,15 y 16 utilizaria Clomid 50mg/dia c y hcg5000 U.i
Eso sin olvidar el liv.52
Que opinan pueden ayudarme?

Ahah

Eso no se llama ciclo amigo pff andriol es uno de los mas toxicos y no se usa por mas de 3-4 semanas para un principiante a lo mucho 3 semanas.

Con el deca apenas vas a empesar a ver resultados y o vas a quitar?? Muy mal subelo a 8 semanas maximo 9.
Falta una testo no hay ciclo si no hay testo si o si.

http://www.tupincho.net/foro/ciclos-basicos-t31742.html

Pasate ahi para que tengas una mejor idea

Bueno todavia no me queda muy claro lo del otro pero bueno, checando los ciclos basicos me llamo la atencion este,pero quisiera agragar algo de masteron para que los musculos se vean duros y rocosos,
que opinan? caundo seria bueno agregarlo? GRACIAS :mrgreen:
Ciclo masa magra:
semana…wins(eod)…bolde(ew)…sustanon(ew)…proviron(ed)…tamo(ed)…hcg(e5d)
1…300…250…
2…300…250…25…10…500…
3…300…250…25…10…500…
4…300…250…25…10…500…
5…300…250…25…10…500…
6…300…250…25…10…500…
7…300…250…25…10…500…
8…300…250…25…10…500…
9…50…300…250…25…10…500…
10…50…300…250…25…10…500…
11…50…25…10…
12…50…25…10…
13…30…
14…20…
15…20…

pd. Tambien moveria la hcg a las semanas 10 - 11 y 12 a cantidad de 1000 U.I /E3D

Masteron minimo 10% de grasa para que te pegue bien.

Ese ciclo esta muy bien te vendra de maravilla si quieres algo mas marcado y masiso acuerdate de la dieta y el cardio juegan un papel importante en esto.

Como para un primer ciclo me parece bien este que has elegido tal vez lo que podrias hacer seria meter propio cuando empiesas con los pinchos del wini para quedar mas seco.

No seria mala idea lo del propio,pero tengo una duda con el ciclo de masa magra , crees que se puedan ganar unos 10 kilos galguillo? gracias

10 kilos? :lol: :lol:

con ese ciclo y haciendo bien la dieta y siendo duro en entrenos,ganaras como mucho 5-6…que ya son kilos… :smiley:

Gracias por responder torobravido1984 , yo realmente quiero hacerle un cambio a mi cuerpo, digamos pasar a una liga mas alta, seria aconsejable un ciclo de masa magra o un ciclo de volumen primero para despues hacer uno de definicion? :evil:
otra cuestion es que con los roids como debo trabajr los musculos, solo una vez a la semanas o dos veces?
de antemano gracias a todos por ayudar :?

y si ocupo algo de dianabol las primeras 4 semanas :oops:

ciclo basico de volumen…deca,testo enan y salida winny con kik de diana 4 primeras semanas a 30ed…

despues ya haras uno de definicion

Muchas gracias por las respuestas, yo tenia mal la idea de masa magra , ademas de creer que se podia subir definido y voluminoso, pero viendo lo asi mejor me quedo con el primer ciclo basico:
Volumen
semana.dianabol(ed)…deca(ew)…sustanon(ew)…proviron(ed)…tamo(ed)…hcg(e3d)
1…25…200…250…
2…25…200…250…25…10…
3…25…200…250…25…10…
4…25…200…250…25…10…
5…200…250…25…10…
6…200…250…25…10…
7…200…250…25…10…
8…200…250…25…10…
9…25…10…1000…
10…25…10…1000…
11…30…
12…20…
13…20…

Lo iniciare a principios de noviembre, pero tengo una ligera gine en la tetilla derecha, es solo en una y me recomendaron tomar nolvadex 2 semanas antes de empezar el ciclo para ver como me hiba, todo para no empeorar la ya existente, ¿ustedes que opinan?
Gracias

Agregale salida de wini las ultimas 4 semanas de la 7-10

El susta lo puedes cambiar por enatato o cipio.

Entonces quedaria asi:
semana.dianabol(ed)…deca(ew)…enantato(ew)…Wins(Eod)…proviron(ed)…tamo(ed)…hcg(e3d)
1…25…200…300…
2…25…200…300…25…10…
3…25…200…300…25…10…
4…25…200…300…25…10…
5…200…300…25…10…
6…200…300…25…10…
7…200…300…50…25…10…
8…200…300…50…25…10…
9…50…10…1000.
10…50…10…1000.
11…30…
12…20…
13…20…

:mrgreen: Espero que con el wins no quede tan liso, por la testo.
no seria bueno meter clembuterol al final para retener ganancias?
Gracias