bolde cipio y estano

semana 1-4 cipionato 2ml y bolde 300mg

semana 5-7 lo mismo pero le añado 300mg de estano (como sera mejor mejor inyect o oral para salir de ciclo)

semana 8 en esta semana dejaria la bolde y la cipio y solo tomaria el estano

depues descanso la semana 9 y vuelvo con el post ciclo. en la semana 10

( tomo en todo el ciclo nolvaldex)

para el post ciclo tengo tamox,clomid, hcg y proviron pero nose muy bien como distribuir ayuda en eso profa.
gracias mido 1,76 peso 75 indice grasa 12% aprox. 21 año
kiero ganar masa y fuerza :slight_smile:

Arma una tabla amigo tienes varios fallos

LA VERDAD ES QUE EL CLOMID Y EL HCG NO SE MUY BIEN LAS CANTIDADES QUE DEBERIA COLOCARLE AYUDA GRACIAS

Sem ------BOLDE ---------TESTO------Proviron------Tamoxifeno-------Clomifeno---------HCG
-------------mg---------------mg---------mg/dia---------mg/dia------------mg/dia---------UI/Sem
1 ------------300--------------400-------------------------10
2 ------------300 -------------400----------25-------------10
3 ------------300--------------400----------25-------------10
4 ------------300 -------------400----------25-------------10
5 ------------300 -------------400----------25-------------10
6 ------------300 -------------400----------25-------------10
7
8------------------------------------------------------------10-------------------100--------------2500
9------------------------------------------------------------10-------------------50
10-----------------------------------------------------------10-------------------50----------------2500

pd: de la 4 a 7 semana incluyo estano pero no se cuanto mg incluir y si es mejor inyectable o oral ?
y el post esta bien o menos casntidades o mas ?

si bas a usar bolde que sehan 10 semanas ala par con la testo , el proviron no se usa en el post ciclo , el clomid no se usa junto con la hcg , ya que termines con la hcg , entonces usas el clomid con la dosis que expusistes estara bien , arregal tu ciclo y buelve a postearlo suertte

mmm … no puedo conseguir mas testo de cipio y bolde la verdad… me alcansa para 6 semanas nomas .:frowning: que podria hacer en ese caso '? y por q nom usar el clomid con el hcg si por los ciclos q e visto la mayoria los hace de esa forma, y el provi no lo uso en el post ciclo … usaria solo nolvaldex hcg y clomid …
tu me dices que las primeras seman del post-ciclo las realice usando el hcg por 2 semanas y a la 3era seguir ccon el clomid … no te entendi muy bien eso amigo … ? porfavor respoder estoy casi apunto de comenzar pero quiero hacer las cosas bien gracias

mirate los ciclos basicos de mi firma ke te sale el ciclo de bolde con su postciclo y demas…bolde 6 semanas no haces nada,lo cortas cuando empieza a pegar,esperate a tenerlo todo y empiezas

la verdad es que me podria conseguir hasta 8 semanas nomas de cipio y bolde estara bien ahi ??? por q mas se me hace inposible pero lo del post ciclo echame una manito amigo gracias

en tu ciclo de masa magra que es el de bolde pero el mio es con cipionato se… metes el hcg desde la 2da hasta la semana 10 ??? eso por que ya que para el post ciclo solo lo haces con nolvadex ??? por q no metes clomid ???

Tamoxifeno 8 - 30
Tamoxifeno 9 - 20
tamoxifeno 10 - 10

No es necesario usar clomid si usas nolvadex(tamoxifeno), si puedes, pero no es obligatorio.

Y el stano, donde esta?

Por cierto, el hcg esta fatal… lo metería a razón de 1000ui cada 3 días durante 2 semanas CONSECUTIVAS. Y otra opción es meterla durante el ciclo a razón de 500ui.
aaah y me acabo de dar cuenta que la semana 7 esta vacia… fallo?

la hcg reactiva las gonodas las hormnonas que secretan testosterona y el clomid aumenta la espermatoginesis , como ves no es lo mismo!

Sem ------BOLDE ---------TESTO------Proviron------Tamoxifeno-------estano---------HCG
-------------mg---------------mg---------mg/dia---------mg/dia--------mg/dia---------UI/Sem
1 ------------300--------------400-------------------------10
2 ------------300 -------------400----------25-------------10
3 ------------300--------------400----------25-------------10
4 ------------300 -------------400----------25-------------10--------------30
5 ------------300 -------------400----------25-------------10--------------30
6 ------------300 -------------400----------25-------------10--------------30
7-----------------------------------------------------------------------------30
8------------------------------------------------------------30---------------------------------1000
9------------------------------------------------------------20---------------------------------1000
10-----------------------------------------------------------10---------------------------------

bueno amigos asi estaria kedando el ciclo hasta ahra … pero el mejor el estano oral o inyectable ???
y el nolvaldex cumple la misma funcion que el clomid ???

Jajajaja para ese churro,mejor no hacer nada.

Stano mejor inyectable, no hay color!
Testo tendrías que bajar a 250, y si puedes meter 2 semanas mas, mejor.
Proviron y nolva hasta el final con stano. Y si puedes, y quieres, puedes subir una semana de stano, a lo máximo 2, para que se quedara en 6.

Sem ------BOLDE ---------TESTO------Proviron------Tamoxifeno-------estano---------HCG
-------------mg---------------mg---------mg/dia---------mg/dia--------mg/dia---------UI/Sem
1 ------------300--------------400-------------------------10
2 ------------300 -------------400----------25-------------10
3 ------------300--------------400----------25-------------10
4 ------------300 -------------400----------25-------------10--------------30
5 ------------300 -------------400----------25-------------10--------------30
6 ------------300 -------------400----------25-------------10--------------30
7---------------------------------------------25--------------10--------------40
8------------------------------------------------------------30---------------------------------1000
9------------------------------------------------------------20---------------------------------1000
10-----------------------------------------------------------10---------------------------------

10 semanas de boldeeeeeeeeeeeee :twisted:

asi quedaria pero no se si alargar la tetso como dijieron creo q esta bien asi

ASI ESTA BIEN

ciclo masa magra:
semana…wins(eod)…bolde(ew)…testo(ew)…proviron(ed)…tamo(ed)…hcg(e5d)
1…300…250…
2…300…250…25…10…500…
3…300…250…25…10…500…
4…300…250…25…10…500…
5…300…250…25…10…500…
6…300…250…25…10…500…
7…300…250…25…10…500…
8…300…250…25…10…500…
9…50…300…250…25…10…500…
10…50…300…250…25…10…500…
11…50…25…10…
12…50…25…10…
13…30…
14…20…
15…20…

asi quedaria el ciclo … y creo qno loo podre alargar … pero lo veo bien y el estano sera inyec.