bolde susta winny opiniones

Hola amigos.Agradeceria saber vosotros qué opinàs de este ciclo.
Antes de todo,mi dados: 1,90 cm ,105 kg body fat 9%.Edad 26…Llevo entrenando 6 anos.

¿Qué os parece ?
¿Tengo que poner proviron también?
Gracias por vuestras opiniones.

Sem Sus(mg/sem)Bold(mg/sem)Win(mg/sem) Arimid(mg/EOD)Tam(mg/dia)Clo(mg/dia)HCG (UI/E3D)
1 -------500—400
2 -------500—400----------------------0,5
3 -------500—400----------------------0,5
4 -------500----200---------------------0,5
5 -------500----200-------200---------0,5
6 -------500----200-------200---------0,5
7 -------250---------------150----------0,5
8 -------250---------------150----------0,5
9 ---------------------------150---------0,5---------------------------------1000
10 -------------------------150---------0,5----------------------------------1000
11 ----------------------------------------------------30------------100
12 ----------------------------------------------------20------------50
13 ----------------------------------------------------20------------50

Sem Susta…Bolde…WinEOD…ArimidEOD…TamoxED…ClomidED…HCG (UI/E3D)
1 -------500-----400--------------------------------------------------------------------------------
2 -------500-----400----------------------0,5--------------------------------------------------------
3 -------500-----400----------------------0,5--------------------------------------------------------
4 -------500-----400----------------------0,5---------------------------------------------------------
5 -------500-----400----------------------0,5--------------------------------------------------------
6 -------500-----400----------------------0,5---------------------------------------------------------
7 -------500-----400----------------------0,5---------------------------------------------------------
8 -------500-----400--------100----------0,5---------------------------------------------------------
9 -------500-----400--------100----------0,5--------------------------------------------------------
10 ------500-----400--------100----------0,5-------------------------------------------------------
11 ---------------------------100----------0,5-----------------------------------------------1000----
12 ---------------------------100----------0,5-----------------------------------------------1000----
13 -----------------------------------------------------------30-------------100-----------------------
14------------------------------------------------------------20--------------50----------------------
15------------------------------------------------------------20---------------50-----------------------

Este ciclo es el indicado.

sin arimidex? tengo miedo que me pueda salir la gine ya que en pasado tenia un pequeno principio de gine en la parte derecha del pecho y creia que el arimidex es el mejor para prevenir este problema

no habia leido bien…gracias por sus respuesta!

El ciclo que plantea el compañero lo veo bien aunque le podríamos subir un poco la carga anabolica de la bolde… también veo un gran tamaño físico con gran estatura si ese es relacción tu indice de grasa es que estas fibrado con 105 kilos…bien otra opción seria sustituir la testo de vida media por una de vida corta de salida en conjunto con el wins para apretar de salida ese ciclo y darle una mayor calidad a tus musculos con una propionato en conjunto en las mismas semanas que el wins y de entrada de kick star darle con diana…seria un ciclo mas compensado de entrada subida y saliendo algo mas apretado para bajar la retencion :twisted: :twisted: :twisted:

gracias por la respuesta jorge…asi que podria poner diana por las primeras 5 semanas algo como 15mg/dia? …vale…es que mi miedo es que anadiendo diana me salga la gine…

Las 4 primeras semanas…solo y maximo 25mg…el adex es muy potente y usandolo eod osea dias alternos no tendria que tener ningun problema en el caso que notaras picores durante algunos dias seguidos o molestias con darle diariamente suficiente :twisted: :twisted: :twisted: