Ciclo 13 Semanas(diana,susta,eq,trembo,win,HGH)

Buenas, quisiera saber que piensan de este ciclo y su combinacion de roids…

SEMANA-Dianabol-SUSTANON -Equipoise-Winstrol- TREMBOLONA - HGH
1----------40---------1000--------1000-------------------100EOD-----------6/8UI
2----------40----------750---------800-------------------100EOD
3----------40----------750---------800-------------------100EOD
4----------40----------750---------800-------------------100EOD
5----------40----------750---------800
6----------------------750--------800
7----------------------750--------800
8----------------------750--------800
9----------------------750--------800
10---------------------750--------800
11---------------------750--------800------50ED--------100EOD
12---------------------750--------500-----50ED---------100EOD
13---------------------500-----------------50ED---------100EOD

**

Durante el ciclo:

** 10mg tamoxifeno, 25mg proviron, protectores hepaticos, 500ui e5d HCG (mediados del ciclo)


Postciclo

: Clomifeno 200mg 1er dia, 100mg 1ra semana, 50mg 2da semana, 50mg 3ra semana


Datos:

Edad 25 años, altura 1.82, peso 97 kg, bodyfat 15% aprox, 4to ciclo

Desde ya gracias!
:smiley:

amigo anteriormente posteaste este ciclo
http://www.tupincho.net/foro/ciclo-extremo-t26412.html#p197656
lo hiciste???
ahora queres meter 2gr de eaa´s con solo 10mg de tamoxifeno???
a donde queres llegar o cual es el fin de todo esto.
me gustaria saber con que fundamento posteas estos ciclos??
es solo para saber doy estoy parado.
no me interesa hablar x hablar.
slds

joder :shock: :shock: Subes de 250mg en 250mg cada vez que haces un ciclo o que?
Explicanos un poco este ciclo

:lol: :lol: :lol: