Ciclo 2005...2° que hago

Hola soy nuevo en este foro. Mi nombre es Paco y estoy a punto de iniciar mi segundo ciclo. actualmente peso 70 kg, mido 1.65 y tengo 27 años. soy de colombia pero vivo en Chile
bueno este es mi ciclo
Como antistrogeno usare tamoxifeno desde la semana 2 10mg/diarios al terminar la seman 10 subo a 20mg diarios.

Semana---------Enatato de test------cipionato de--------Dbol------Winstrol
-----------------------------------------nandrolona----------------------depot
1-------------------500-------------------400----------------20----------------
2-------------------500-------------------400----------------20----------------
3-------------------300-------------------400----------------20----------------
4-------------------300-------------------400----------------20----------------
5-------------------300-------------------400------------------------------------
6-------------------300-------------------400------------------------------------
7-------------------300-------------------400------------------------------------
8-------------------300-------------------400------------------------------150—
9-------------------300-----------------------------------------------------150
10-----------------300-----------------------------------------------------150
11--------------------------------------------------------------------------150
12--------------------------------------------------------------------------150

Post Ciclo
Semana 6 2500 HG
Semana 13 2500ui HG + Tamoxifeno 20mg
Semana 14 2500 UI HG+ Tamoxifeno 20mg + clomid 100mg
Semana 15 Tamoxifeno 20mg + clomid 100mg
Semana 16 Tamoxifeno 20mg + clomid 50mg

Se les agradecería mucho sus opiniones y comentarios
Muchas Gracias y sigan entrenando duro duro :o

EL TAMOXIFENO HAY QUE TOMARLO SIEMPRE JUNTO AL PROVIRON, LO IDEAL ES 25MG PROVIRON + 10MG DE TAMOXIFENO TODOS LOS DIAS. USANDOLO JUNTO AL TAMOXIFENO, EVITAS EL EFECTO REBOTE/ESPEJO DEL TAMOXIFENO.

ESTE ES UN ERROR EN EL QUE CAEN MUCHOS NOVATOS, CREEN QUE POR USAR SOLO TAMOXIFENO COMO ANTIESTROGENICO ESTAN PROTEGIDOS DE LA GINECOMASTIA !!! ERROR !!! , INFORMATE UN POCO SOBRE ESTO QUE TE COMENTO, AUNQUE NO LO CREAS EL TAMOXIFENO USADO SIN PROVIRON TE PUEDE CAUSAR GINE (EFECTO REBOTE).

EL PROVIRON SERIA CONVENIENTE QUE LO MANTUVIESES UN PAR DE SEMANAS DESPUES DE ACABAR EL POSTCICLO.

UN SALUDO.

Es solo una sugerencia…
CICLO
Semana—Enantato—cipionato de—Dbol----Winstrol—Proviron-----HCG
------------- de test----nandrolona—mg/dia–depot-------mg/dia----------
1-------------500-------------400--------20------------------25----------------
2-------------500-------------400--------20------------------25----------------
3-------------500-------------400--------20------------------25----------------
4-------------500-------------400--------20------------------25----------------
5-------------500-------------400-----------------------------25-------2500 UI
6-------------500-------------400-----------------------------25----------------
7-------------500-------------400-----------------------------25----------------
8-------------500-------------400------------------150-------25----------------
9-------------500-----------------------------------150-------25----------------
10------------500-----------------------------------150-------25----------------
11---------------------------------------------------150-------25----------------
12---------------------------------------------------150-------25----------------

POST CICLO
Semana 13 2500 UI HCG + Tamoxifeno 20 mg + Proviron 25 mg
Semana 14 Tamoxifeno 20 mg + clomid 50 mg + Proviron 25 mg
Semana 15 25oo UI HCG + Tamoxifeno 20 mg + Proviron 25 mg
Semana 16 Tamoxifeno 20 mg + clomid 50 mg + Proviron 25 mg
Semana 17 Proviron 25 mg

NOTA: No olvides los protectores hepáticos.

NO CREO EN LOS FRONT LOAD, SIGUE EL CONSEJO DE 500 DE TESTO O BAJATE A 300, PERO ESTABLE TODAS LAS SEMANAS 8)

Muchas gracias. Añadiré el provirón, y con heptoprotectores ya había considerado legalón.
Ahora, no será demasiado subirle a 500 mg la testo?
o es mejor que lo haga de una vez en mi segundo ciclo.
Muchas gracias por sus consejos

Sigan entrenando duro

Yo me habia echo la misma pregunta y NO es demasidado, creo ke es la dosis minima en relacion ganancias efectos adversos, ya ke 300 mg te inhibiran tb el eje casi o de la misma forma

no entiendo por q en el post ciclo hay q husar proviro supuestamente

-el proviron inhibe la testosterona natural al ser un androgeno del dht x lo q en el posciclo no hay q usarlo.

podeis aclararme esta duda por q se debe de husar el proviron durante el post ciclo?¿

Muchas gracias a todos por su ayuda.
Entonces subiré a 500 la testo
Sólo una duda más la nandrolona que voy a usar es cypionato se inyecta una vez a la semana o dos?
y el winstrol es la primera vez que lo uso depot.
cada cuando se inyecta.
muchas garcias por su ayuda
Y sigan entrenando duro

Hermano si tienes una duda habre un post nuevo y no desvies el tema que está en curso y así se mantiene el orden del foro sin distorcional los temas, lee el links siguiente

http://www.tupincho.net/foro/viewtopic.php?t=7198

Regla número 1

*RECUERDEN MANTENER LOS TOPICOS DE CADA POST NO DISTORCIONARLOS, Y COLOCARLOS EN EL FORO ADECUADO CADA UNO ES PARA UN TOPICO ESPECIFICO (TONTERIAS A LAS TONTERIAS Y CICLOS A LOS CICLOS,ETC,ETC,ETC) HAY VARIOS USUARIOS QUE TIENEN ALGO DE TIEMPO AQUI Y NO COLABORAN EN ESTO, QUE ES IMPORTANTE.

La nadrolona cipionato tiene un tiempo de vida mas corto ke el decanoato, inyectala lunes y jueves y el winstrol lunes miercoles y viernes

Muchas gracias a todos por su ayuda.
Este Lunes empiezo con mi ciclo
Los mantendré informados sobre mi porgreso

De nuevo Muchas Gracias y Sigan entrenando Duro :stuck_out_tongue: