Ciclo con Bolde,Testo,anadrol, y winstrol

Buenas a todos, aquí teneís mi intención de ciclo; se trata de mi 2º ciclo después de dejar el que hice básico, con sustanon y deca, peró sín kickstrar ni wins; con buenos resultados en masa y fuerza, y algo de retención de líquido. Aver si me orientais para este definirlo mejor, ya que mi intención es conseguir buena masa y fuerza, y secarme lo posible las ultimas semanas con el wins. Gracias.
Mis datos: 1.75m/85kg/11% indic grasa.

sem. sem. dia. cada 3dias. dia. dia. sem. dia.
Testoviron Bolde Anadrol Winstrol Provinon Tamox HCG Clomid
1- 500 500 100
2- 500 500 50 25 10
3- 500 500 50 25 10
4- 500 500 50 25 10
5- 500 500 25 10
6- 500 500 25 10
7- 500 500 50 25 10
8- 500 500 50 25 10
9- 500 500 50 25 10
10-500 500 50 25 10
11- 50 25 10
12- 50 25 10 2500/IU
13- 30 2500/IU 100
14- 20 50
15- 20 50

edad??

aquí se lee más claro :mrgreen:

----sem------------sem---------sem--------cada3dias-------dia------------dia------------sem--------dia Testoviron_______Bolde_____Anadrol____Winstrol_____Proviron_____Tamox._____HCG_____Clomid
1-500--------------500---------100----------------------------------------------------------------------------
2-500--------------500---------50--------------------------------25------------10----------------------------
3-500--------------500---------50--------------------------------25------------10----------------------------
4-500--------------500---------50--------------------------------25------------10---------------------------
5-500--------------500--------------------------------------------25------------10----------------------------
6-500--------------500--------------------------------------------25------------10----------------------------
7-500--------------500---------------------------50--------------25------------10----------------------------
8-500--------------500---------------------------50--------------25------------10----------------------------
9-500--------------500---------------------------50--------------25------------10----------------------------
10-500-------------500---------------------------50--------------25------------10---------------------------
11-------------------------------------------------50----------------------------10----------------------------
12-------------------------------------------------50----------------------------10------------2500-----------
13--------------------------------------------------------------------------------30------------2500------100-
14--------------------------------------------------------------------------------20-------------------------50-
15--------------------------------------------------------------------------------20-------------------------50-

Se me olvido, 28 años.

la hcg como la pones??

En la semana 12, a 1000IU cada 3 dias, semana 13 1000, 500 y 500IU.

empezaria el post en la semana 14 para no meterla junto con la hcg, la hcg la meteria a razon de 1000 u.i e3d hasta completar 5000 u.i… o lo mejor en mi opinion es hcg desde la segunda semana hasta la semana 10…

Por lo demás algun apunte más que cambiaríais? Por ejemplo, las 6 semanas del winstrol, creen que estan bien distribuidas; o es mejor tomarlo después de la testo y la bolde. Y si la toma cada 3 días es la más correcta?
Gracias

el wins esta correcto solo que se inyecta dia si, dia no, dia si, dia no… por ejemplo: lune-mierco-vierne-domin-marte-jueves-sab

Una duda sobre este ciclo, tengo suficiente con tomar durante el ciclo Liv.52 como protector hepático? O debería incluir otro protector de farma además?

podrias meter acido alfa lipoico

Si no me equivoco eso es un antioxidante, la función no es directamente a desintoxicar el higado. Lo digo porque como antioxidante, ya tomo 2 o 3 tazas de té verde al día, y alguna de cola de caballo para la retención de líquidos también.
Que opínas? Seria mejor combinar Liv52 con algun farmaco (sin receta) destinado a eso?

Usos terapéuticos del ácido lipoico:

El ácido lipoico ha demostrado ser hepatoprotector, mejorar la circulación del hígado, tratar enfermedades crónicas del hígado, tales como la ictericia, la hepatitis, cirrosis, coma hepático, diabetes, alteraciones del metabolismo de los carbohidratos,neuropatía diabética, trastornos metabólicos de la histidina, alteraciones de los niveles de lactato y piruvato, enfermedades psiquiátricas, enfermedad de Botkin, envenenamiento con antimonio, envenenamiento por mercurio, aterosclerosis, aterosclerosis coronaria, enfermedades cerebrovasculares, daño en el hígado por etionina, envenenamiento por cianuro de potasio, intoxicación por estreptomicina, envenenamiento por setas, bajar el colesterol, invertir anestesia barbitúrica, reducir experimentalmente la ingesta voluntaria de alcohol y aumentar la tolerancia de potasio.

El ácido lipoico también ha sido usado experimentalmente y/o clínicamente para prevenir la disfunción de órganos, reducir la disfunción endotelial y mejorar la “albuminuria”, para tratar o prevenir la enfermedad cardiovascular, acelerar la cicatrización de heridas crónicas, reducir los niveles de ADMA en los pacientes diabéticos en fase terminal de enfermedad renal en hemodiálisis, síndrome de boca ardiente, reducir la sobrecarga de hierro, tratar síndromes metabólicos, mejorar o prevenir la aparición de la enfermedad cognitiva relacionada con la edad ,prevenir o retardar la progresión del Alzheimer, prevenir la disfunción eréctil ( en modelos animales, anecdóticamente en humanos), prevenir migrañas, tratar la esclerosis múltiple, el tratamiento de enfermedades crónicas relacionadas con el estrés oxidativo, reducir la inflamación, inhibir productos de avanzada glicación final (AGE) y tratar la enfermedad arterial periférica.

----sem------------sem---------sem--------cada3dias-------dia------------dia------------sem--------dia Testoviron_______Bolde_____Anadrol____Winstrol_____Proviron____Tamox.____HCG____Clomid
1-375--------------500---------50----------------------------------------------------------------------------
2-375--------------500---------100-------------------------------25------------10----------------------------
3-375--------------500---------100-------------------------------25------------10----------------------------
4-375--------------500---------100-------------------------------25------------10---------------------------
5-375--------------500--------------------------------------------25------------10----------------------------
6-375--------------500--------------------------------------------25------------10----------------------------
7-375--------------500--------------------------------------------25------------10----------------------------
8-375--------------500---------------------------50--------------25------------10----------------------------
9-375--------------500---------------------------50--------------25------------10----------------------------
10-375-------------500---------------------------50--------------25------------10---------------------------
11-------------------------------------------------50--------------25------------10------1000ui--------------
12-------------------------------------------------50--------------25------------10------1000ui---------------
13--------------------------------------------------------------------------------30-----------------------100-
14--------------------------------------------------------------------------------20------------------------50-
15--------------------------------------------------------------------------------20------------------------50-

l hcg es e3d el anadrol subelo a 100 mg si sientes que hace falta, si te esta pegadon bien dejalo en 50 mg

bueno e estado siguendo con el planteamiento de elve para este ciclo; todo a ido excelente, lo más a destacar en los entrenos a sido la fuerza y congestiones increíbles, que me hinchaban cada vez más. El apartado físico no e subido mucho de peso, e ganado en calidad muscular, no me e llenado apenas de agua, y e notado una buena vascularización supongo que por la bolde.

El problema a venido a la semana 10; el mismo lunes me da un ataque de vomitos y una fiebre enorme, total no me pincho ese día, no tomo ni proviron ni tamoxifeno durante dos días a causa de las nauseas, y lo peor, no como alimentos apenas y me siento debil con la fiebre; pense en dejar el ciclo y darlo por terminado. Como resultado; acabo de perder 3 kilos y todos los progresos en solo 3días. Hoy jueves al encontarme mejor ya me e inyectado por ultima vez, y e ido a entrenar. Mi pregunta es, si debo aún estando enfermo seguir con el ciclo tal cual, o esperar a sentirme mejor.

Cuál fueron las ganancias antes del percance?? cuando estamos ON las defensas se nos debilitan y tenemos que tener más cuidadito :oops:

No te preocupes que recuperar es más fácil que crear nuevo xD

Subi de peso unos 3.5-4kilos, ahora e pegado una bajada, pero sigo adelante :smiley:
Y no sabía lo de que nos debilitan las defensas, de hecho pense que era todo lo contrario, ya que los roids dan esa sensación de bienestar, y que podemos con todo.