ciclo de masa magra,propio,oxa,bolde y cipio

cypio(ew)—bolde(ew)–propio(eod)—oxa(ed)- adex(eod)-hcg(ew) nolva(ed)
1-300--------300 --------------75 -----------40---------0,5--------500
2-300--------300---------------75------------40---------0,5--------500
3-300--------300---------------75------------40---------0,5--------500
4-300--------300-----------------------------------------0,5---------500
5-300--------300-----------------------------------------0,5---------500
6-300--------300-----------------------------------------0,5---------500
7-300--------300-----------------------------------------0,5---------500
8-300--------300-----------------------------------------0,5---------500
9-300--------300-----------------------------------------0,5---------500
10-300-------300-----------------------------------------0,5---------500
11------------------------------75--------------40--------0,5 ----------500
12------------------------------75--------------40--------0,5----------500
13 14 30
15 20
16 20

Este es el ciclo que tenia pensado realizar,23 años,mi peso es de 73kg con un 10-11% de BF,estoy sequillo pero no una bestialidad,llevo entrenando desde los 18 bastante continuadamente,excepto el año pasado que estuve muy jodido con los lumbares por un pinzamiento y estuve liao con la rehabilitacion,al final entre epocas de entreno suaves y de no poder ir directamente fueron 9 meses con poco progreso.Mi objetivo con este ciclo es ganar masa magra y fuerza.

La principal duda que tengo es con el hcg,esta bien como lo he puesto? o tengo que quitarlo de las semanas 11 y 12,el nolvadex del postciclo concretamente los 20mg diarios de la semana 16 se ha ido pa abajo en la tabla,pero amos que esta ahi.

perdon por la tabla esto de los ordenadores es un cachondeo,voy a hacerlo en papel,le saco una foto y la subo

Estamos la espera :twisted:

Tabla editada y corregida.

He eliminado el hcg de la semana 1 me he colao ahi,basicamente un ciclo basico de testo+bolde con kick y salida de propio y oxa,tengo varias dudas,el hcg de las semanas 11 y 12 esta bien o sobra? y la oxandrolona habia pensado tomarla asi: 20mg en la comida de antes de ir al gym(desayuno) y luego otros 20mg en el post entreno ya que luego a las 2 horas aproximadamente despues del gimnasio me toca ir a la piscina,algun cambio? algo mal?

Por cierto ecko gracias por lo de la tabla que se me olvidaba,que al pegar del word a aqui se mezclo todo

A mi no me guista el final,para eso quita 4 semanas de testo(las ultimas) e incorpora propio y oxa de salida maximo 11 semanas de ciclo mas de eso, la recuperacion tarda.

A acortarlo asi te refieres? asi se dejan las semanas on en 10,por lo demas,el uso del hcg esta correcto?