ciclo de oximetolona,enantato y estano

oximetolona–cipionato ------estano----------tamoxifeno-hepatico-hgg
mg/dia-------mg/semana—mg/semana-----mg/dia------mg/dia–ui
1.-50--------------200-------------20---------------20--------600-----------
2.-50--------------200-------------30---------------20-------600------------
3.-50--------------200-----------40-----------------20-------600-----------
4.-50-------------200--------------40----------------20-------600----------
5.-----------------------------------30---------------20-------600-----------
6.-----------------------------------20---------------20------600-----------
7.------------------------------------20---------------20-------600------250
8.-------------------------------------------------------------------------250
9.------------------------------------------------------------------------250
bueno este cilco me l ofrecireorn , y no se si se bueno , me gustaria saber su opinion

**

Bueno primero tus datos edad tiempo entrenando peso estatura…luego hablamos del ciclo.

**

250 de HCG… cuanto te vas a poner medio milimetro o ke? el winstrol esta muy alargado… bueno infinidad de tonterias, no se te ocurra ponerte eso, y minimo ten la amabilidad de saludar o algo asi dinos tus datos asi solo con el ciclo no se puede hacer mucho, los ciclos no son como las camisetas que a cualquiera le keda eh ubicate.

Saludos desde MEXICO
GRACIAS

holas disculpen lo lo subi apurado , mi peso es 77 kg y mido 179, llevo 4 añoz entrenando y pretendo que este sea mi primer ciclo bueno , yo no esntido mucho de cicloss , e estado leyendoo y tampo me parece bueno esta que le postie ppero me gustaria que me ayudaran a arrelgarlo a ver si se puede , por su atencion muchas gracias

oximetolona–cipionato ------estano----------tamoxifeno-hepatico-hgg
mg/dia-------mg/semana—mg/semana-----mg/dia------mg/dia–ui
1.-50--------------200-------------20---------------20--------600-----------
2.-50--------------200-------------30---------------20-------600------------
3.-50--------------200-----------40-----------------20-------600-----------
4.-50-------------200--------------40----------------20-------600----------
5.-----------------------------------30---------------20-------600-----------
6.-----------------------------------20---------------20------600-----------
7.------------------------------------20---------------20-------600----------
8.-------------------------------------------------------------------------2500
9.------------------------------------------------------------------------2500

[size=5]
**A ver 600mg de hepatico? hepatico que?? bueno ahora el cipio el cual es testo lo cortas antes de que empiece a actuar dejala a 8 semanas dejame darle un retoque y lo checas ok??

**
[/size]

oximetolona–cipionato ------estano----------tamoxifeno-hepatico-hgg
mg/dia-------mg/semana—mg/semana-----mg/dia------mg/dia–ui
1.-50-------------200---------------------------------------600-----------
2.-50-------------200------------------------------10-------600------------
3.-50-------------200------------------------------10-------600-----------
4.-50-------------200------------------------------10-------600----------
5.-----------------200------------------------------10-------600----------------
6.-----------------200-------------50mg eod------10------600------------------
7.-----------------200-------------50mg eod------10-------600-----------------
8.-----------------200-------------50mg eod------10------------------------------
9.----------------------------------50mg eod---------------------------------------
10.---------------------------------50mg eod----------------------------------
11.----------------------------------------------------------------------------2500
12.----------------------------------------------------------------------------2500

bueno asi kedaria segun lo que tu me has dichoo , en realidad eso es lo que tengoo hasta ahora , si esque lo hiciera asii mm k les parece, aproximadamemte cuanto ganaria bueno aprate de k seguire una buena dieta .

Aun te falta otro farmaco lee otros post y veras cual es necesito lo leas y compares no tiene caso que te haga el ciclo de acuerdo??el postciclo tambien lo investigas si metes legalon durante el ciclo quitalo usalo 3semans antes y 3 semanas despues.A mi parecer añadiria boldenona 300mg semanales a la par que la testo.

**

Sigo esperando cual es tu edad?? te falta algo mas ahi…a que hepatico te refieres y pon bien el postciclo investiga como va…

**

hola tengo 22 y mido 180 y peso 79 emm entreno hace 4 añoss y este seria mi primer cicloo , emm es lo que me ofrecieorn , inteto que me digan si es que vale la pena , ya que asi me arregare a comprarlo la idea es que sea de masa pero. emmm el hgc no se dodne ponerloo