Ciclo definitivo duda!!!

Hola… hace un par de meses hice un tema con mi ciclo despues de preguntar leer aqui tengo creo yo lo que va ha ser mi tercer ciclo…

Ultimamente me han salido un par de dudas que espero que me respondais… tengo en mente 2 ciclos… aver cual os parece mejor…

El susta aqui en Tarragona ( España ) esta dificil de conseguir… asi que no tengo otra que usar o cipionato o enanato… he optado por el cipionato… testex de 250… como lo veis… alguna sugerncia?.. os pongo aqui los ciclos…

La trembo estoy a la espera de 2 proveedores aver si me la traen… cual es la mjr marca que ronda por aqui españa y la mas fiable…??

CICLO 1

Semana–Tremb-----Cipio----bolde—Winst—Tamox—Provi-----Clomid----HCG

1----------75eod-----250-------300
2----------75eod-----250-------400---------------10--------25
3----------75eod-----250-------400---------------10--------25
4----------75eod-----250-------450---------------10--------25
5----------------------500-------500---------------10--------25
6----------------------500-------600---------------10--------25
7----------------------500-------600------150-----10--------25
8----------------------250-------400------150-----10--------25
9-------------------------------------------150-----10--------25-----------------1000e3d
10------------------------------------------150-----10--------25-----------------1000e3d
12---------------------------------------------------30--------25----------100
13---------------------------------------------------20--------25----------50
14---------------------------------------------------20--------25----------50

CICLO 2

Semana–Oxandorlona–Cipio----bolde—Winst—Trembo—Tamoxifeno—Provi-----Clomid----HCG

1----------25-------------250-------300
2----------25-------------250-------400-----------------------------10--------25
3----------25-------------250-------400-----------------------------10--------25
4----------25-------------250-------450-----------------------------10--------25
5--------------------------500-------500-----------------------------10--------25
6--------------------------500-------600-----------------------------10--------25
7--------------------------500-------600-----150-----75eod--------10--------25
8--------------------------250-------400-----150-----75eod--------10--------25
9----------------------------------------------150-----75eod--------10--------25-------------------1000e3d
10---------------------------------------------150------75eod-------10--------25-------------------1000e3d
12---------------------------------------------------------------------30--------25----------100
13---------------------------------------------------------------------20--------25----------50
14---------------------------------------------------------------------20--------25----------50

Bien aqui esta las 2 opciones que tengo… la oxi tmb etoy a la espera de que me digan el que… alguna marca o labs en concreto de oxi buenaa?..

A la espera de alguna sugerencia critica… canviarais el cipio por alguna otra testo… me han ofrecido omnadren russo… pero no me fio mucho de las cosas rusas etc etc… hay mucho facke…

Mis datos aunque ya los he puesto en otros post anteriormente… 23 años… y entrenando 4 años si no recuerdo mal… buena dieta y entreno duro… aunque ahora en examenes no duermoo lo que tendria que dormir… el ciclo esta pensado para de aqui 2 meses… cuando tenga mas tiempo para dedicarme a mi mismo…

Gracias…
Espero respuesta…

el winni es 50 eod, no? y lo aplicaras los lunes miercoles y vienres¿

si consigues trembo es mucho mejor, el ciclo lo veo bien estructurado pero lo unico q veo es las dosis altas de boldenona, deberias usar una sola dosis para todo el ciclo. puedes usar 250 de la testo y 300 de bolde o 500 de testo y 400 o un poco mas de bolde. Lo demas lo veo bien, el winny obviamente 50 EOD (dia de por medio). Saludos

si el win es 50 eod pero e puesto la suma en total… simpre he usado deca, esta es la 1era vez que uso bolde… a razon de 400 es suficiente?

Que ciclo… elejis, el 1ero o el segundo?

con la segunda opcion saldrias mas seco por la tremo y wintrol, nada mas ke dejaria la boldenona a 400 todo el ciclo y testo la puedes subir a 375 si kieres.

ok 400 de bolde… yo ahbia subidoo porque me dijeron que mucha gente al final sube un poco la dosis por eso de que tarda en pegar… la dejare a 400 pueses y la testo… 375 todo el ciclo? o piramidal?.. tengo cipionato en casa…


Bolde y testo lineal en todo el ciclo

Me decanatare por el segundo ciclo si consigo oxi de confianza que ahora es dificil x mi zona… kedaria asi entonces:

Semana–Oxandorlona–Cipio----bolde—Winst—Trembo—Tamoxifeno—Provi-----Clomid----HCG

1-------------25----------250-------300
2-------------25----------375-------400-----------------------------10--------25
3-------------25----------375-------400-----------------------------10--------25
4-------------25----------375-------400-----------------------------10--------25
5--------------------------375-------400-----------------------------10--------25
6--------------------------375-------400-----------------------------10--------25
7--------------------------375-------400-----150-----75eod--------10--------25
8--------------------------375-------400-----150-----75eod--------10--------25
9----------------------------------------------150-----75eod--------10--------25-------------------1000e3d
10---------------------------------------------150-----75eod-------10--------25-------------------1000e3d
12---------------------------------------------------------------------30--------25----------100
13---------------------------------------------------------------------20--------25----------50
14---------------------------------------------------------------------20--------25----------50

nuca habia porbado esas dosis de testo… simpre pasava de 250 a 500… a 375 me lo podria cada 3 dias… para tener simpre testoo “nueva” en el cuerpo… 180mg en cada pincho mas o menos…

el ciclo se be bien asi, lo uniko korta el provi en la semana 10, y la bolde y el cipio la primera semana sube la cantidad igual ke en todas las semanas , dejalas lineal.

efectivament el winstrol son 50mg EOD

yo no me iria con la trembo, no se si ya la hayas usado, pero al menos hemos tenido aqui un post en la seccion del “medico responde” problemas con el eje de un usuario por usar trrembo y broncas con la prolactina, ojo, no estoy en contra ni a favor, aunque ya hemos platicado FLFH y yo este tema con otros usuarios y cuando nos han enseñado los analisis estan curiosos.

Ecko… aqui estaria bueno un aporte tuyo respecto de esto con la trembo… aunque mi opinion es que no la use…

saludos
:twisted:

Saludos el ciclo me gusta, solo eliminaria la oxan o la cambiaria por dbol, Saludos

[size=5]
Bien lo unico que cambiaria de ser trembo seria la inclusion de A-dex(arimidex) substituyendo al duo dinamico (provi/nolva) ya que esta comprobado un inhibidor de aromatasa combate mejor la prolactina que un antagonista(nolvadex).

Y aun asi es de cuidado, la trembo si se usa hay que escalonarla en la ultima semana de administracion.Mas si es tu primer ciclo no la usaria le daria mas tiempo para llegar a tomarla en cuenta.
[/size]

Ecko, aprovenxado que a salido tema prolactina… usando susta y deca tambien seria mejor un IA antes q provi/nolva… o en este tema la bolde y el deca son diferentes?

un saludo


Con deca si usaria un IA si es bolde solo provi + nolva

OK, gracias

Ahora que reviso mi ciclo y he mirado el de muchos e visto una cosa que no comprendo… la trembo es eod como el win… dia si dia no… la mayoria de usarios ponen trembo 150mg semanales… k son 2 pinchos de 75 mg cada uno… eso es eod? yo havia pensado en 75 mg semanales… lunes mierkoles y viernes…

gracias!

Trembo eod como el winstrol exactamente. 75mg eod.

No hay mas

Saludos

yo para salida en mi ciclo voy a llevar wini y primo eod, lo q lleve un dia al dia siguiente yevo lo otro y asi 30 dias a pinxazo diario 50mg wini 100 mg primo

EH??? :roll: no entendi

entreri pero seguiras con una testo? yo lo voy hacer asi tb pero 300mg semana de primo q practicamente es lo msmo y el winy 50 eod. efectivamente ese mes sale a un viaje diario.