Ciclo HGH masa-mantener BF

Buenas,
voy a hacer mi primer ciclo con HGH y quisiera saber qué os parece lo que planteo, sé que no se puede escribir en este subforo pero no tengo los 250 mensajes para escribir en foro élite, si pudieran moverlo se lo agradecería, antes era el usuario Parmenio, que tengo bastantes mas mensajes pero dejé de usar el correo asociado a esa cuenta. Al lío que me voy por las ramas:
datos:
edad: 29 años
estatura: 1,83
peso: 85 kgs
bf: aprox 10%

así sería el ciclo:
Sem HGH (UI/dia) Enantato testo(EW) Enantato trembo(ew) Propio(EOD) Primo(EW) Win(eod) Prov(ed) Tamo(ed) HCG(e5d) Clomid(ed) Arimidex??(0,5 mg eod) A PARTIR DE LA SEMANA 2 !!! clen
1 2
2 2
3 2,5
4 3
5 4
6 5 500 300 75 x 500
7 5 500 300 75 x 500 0,5
8 5 500 300 75 x 500 0,5
9 5 500 300 75 x 500 0,5
10 5 500 300 x 500 0,5
11 5 500 300 x 500 0,5
12 5 500 300 x 500 0,5
13 5 500 300 x 500 0,5
14 5 500 300 x 500 0,5
15 5 500 300 x 500 0,5
16 5 125 300 75 x 500 0,5
17 5 125 300 75 x 500 0,5
18 5 125 300 75 x 500 0,5
19 5 125 300 75 x 500 0,5
20 5 x 30 100 0,5
21 5 x 20 50 0,5
22 5 x 20 50 0,5
23 5 x 20 50 0,5
24 5

separa el ciclo con guiones o comas para entenderse mejor

Lo arreglo:

Sem HGH (UI/dia) Enantato test(EW) Enantato trembo(ew) Propio(EOD) Primo(EW) Win(eod) Prov(ed) Tamo(ed) HCG(e5d) Clomid(ed) arim
1 2
2 2
3 2,5
4 3
5 4
6 5----------------------500-------------------- 300-------------------------------------------------75-----------------------------------500
7 5----------------------500-------------------- 300-------------------------------------------------75-----------------------------------500--------------------0,5
8 5----------------------500-------------------- 300-------------------------------------------------75-----------------------------------500--------------------0,5
9 5----------------------500-------------------- 300-------------------------------------------------75-----------------------------------500--------------------0,5
10 5----------------------500-------------------- 300------------------------------------------------------------------------------------ 500----------------------0,5
11 5----------------------500-------------------- 300------------------------------------------------------------------------------------ 500----------------------0,5
12 5----------------------500-------------------- 300------------------------------------------------------------------------------------ 500----------------------0,5
13 5----------------------500-------------------- 300------------------------------------------------------------------------------------ 500----------------------0,5
14 5----------------------500-------------------- 300------------------------------------------------------------------------------------ 500----------------------0,5
15 5----------------------500-------------------- 300------------------------------------------------------------------------------------ 500----------------------0,5
16 5----------------------------------------------------------------------125------------------300-------75----------------------------------500---------------------0,5
17 5----------------------------------------------------------------------125------------------300-------75----------------------------------500---------------------0,5
18 5----------------------------------------------------------------------125------------------300-------75----------------------------------500---------------------0,5
19 5----------------------------------------------------------------------125------------------300-------75----------------------------------500---------------------0,5
20 5-----------------------------------------------------------------------------------------------------------------------------------30---------------------100
21 5-----------------------------------------------------------------------------------------------------------------------------------20----------------------50
22 5-----------------------------------------------------------------------------------------------------------------------------------20----------------------50
23 5--------------------
24 5---------------------

Vamos!! Algún consejo!!

No queda claro si es tu primer ciclo o es el primero en q usas HGH . Si fuera lo segundo, cuantos ciclos llevas hechos?

sigo sin entender nada, dosis de HGH no se pueden dar fuera del subforo elite ahi hay una guia que puedes leer para que comprendas el uso de esta hormona, si no es farmaceutica te saldra caro ver buenos resultados.El ciclo no lo entiendo meteras enantato de testo y trembo por cuentas semanas? salida de propio, estano? el primo cuando? exponlo asi:
testo semana 1-8 250mg
trembo semana 1-8 300mg ew
etc…

Por eso pedí si podían moverlo al subforo élite, porque voy a meter HGH y quisiera opiniones. Sería mi cuarto ciclo, y ya he usado trembo con estupendos resultados.

HGH: 5ui/dia todo el ciclo
testo enantato: Semana 1-10. 500mg/ew
trembo enantato: Semana 1-10. 300mg/ew
winstrol: Semana 1-4. 75mg/eod (a nadie le gusta win como kickstart pero no quiero usar diana ni nada que me hinche)
testo propionato: semana 11-14. 125mg/eod
primobolan. semana 11-14. 300mg/ew
winstrol. semana 11-14. 75mg/eod
HCG: 500ui/e5d todo el ciclo.
arimidex: 0,5mg/eod todo el ciclo

y el postciclo tipico de clomid-tamoxifeno.

si lees la guia que te sugire vas a ver que la HGH no te va a funcionar con el poco tiempo que la piensas usar, date una vuelta por el hilo que te digo.
10 semanas de trembolona es demasiado! no por meter mas vas a conseguir mas, el estano de kick tambien esta de mas si es trembolona acetato lo que vas a usar no necesitas un kick o si quieres puedes meter algo de propionato de testo como kick para un empuje extra que como te digo con la trembo ace no lo necesitaras.
Primobolan a 4 semanas es un desperdicio, creo que aquí te lo dieron al revés cambia los tiempos de la trembo por el primo y sera un mejor ciclo.

No amigo, tal como he puesto, es enantato de trembo, el cual se recomienda usar por unas 8 semanas, no veo tan descabellado el usarlo a 10.
Y el primo para bajar el BF saliendo del ciclo lo veo perfecto, no veo la necesidad de usarlo tantas semanas siendo perfecto para definición en acción corta.
El HGH no lo voy a usar, voy a meter 25-50 mcg/dia de t3.

el primo menos de 8 semanas es un desperdicio, no actua a corta accion como decis vos…, recien a la 6ta semana podes empezar a notar algun cambio, haciendo asi el pico en la semana 8 masomenos., Si metes solo 4 semanas no va ni a empezar hacer efecto.

y la trembo, te la recomiendan menos porque hace efecto mas rapido, esta si es de accion rapida…, y ademas de eso tiene efectos secundarios quizas mas fuertes q otros, por ejemplo el primo casi ni efectos secundarios tiene (en dosis consideradas).

Cambia el primo por la trembo. Y tambien creo q te convendria meter los dos roids en la misma semana ejemplo trembo del 1 al 4, y primo de 1 al 10 con la testo.

Una cosa q no entendi, pensas meter dos veces winstrol, no le veo sentido…, y te digo porque deberias meter dianabol si es q quieres meter algo extra (aunque con la trembo vas a ir bien), el dianabol quizas te hinche un poco pero piensa q lo vas a usar las primeras semanas y las proximas se te va a ir la retencion de liquido, y lo que te va ayudar a eliminar esa retencion es el primobolan, asi que no vas a tener drama de poder meter dianabol.

viendo tu respuesta se que no tienes ni idea de lo que vas a meter, no sabes de sus efectos ni de las propiedades de cada una de las sustancias, lee mas. la trembo sea enantato o acetato por mas de 6 semanas es un peligro, si es trembolona auténtica por supuesto, el primo de acción rápida? :lol: Dios…