ciclo restructurado

segui vuestros consejos y esto fue lo que he decidido realizar, objetivo masa magra.
aguardo comentarios y sugerencias.

semana 1- 20 mg de stanazolol diarios- 200 mg deca
semana 2 a 6- 30 mg de stanazolol diarios-
semana 2 a 5- 400 mg deca
semana 6- 200 mg deca
semana 1 a 6- propionato de test- 500 mg/ semana
semana 4 a 9- testoviron depot- 250 mg x semana
semana 6 a 9- clomid- 20 mg diarios

Aguardo vuestros cometarios.
gracias y saludos
juan

a partir de la segunda semana usa nolvadex,manten estable el deca en 400mg lo mismo que la testo manten a 500mg,el win yo lo utilizaria las semanas del final,te falta hacer un post ciclo,para mi es un ciclo bastante mal estructurado planteatelo bien

enotnces …

semana 1 a 8 - deca 400 mg semana
semana 2 a 10- 50 mg dia de proviron- 20 mg dia de stanazolol
semana- 2 y 3- 500 mg semana de propionato de test
semana 4 a 9- sustanon 250- 500 mg semana
semana 11 - 100 mg dia de clomid- 2500 ui- pregnyl
semana 12- 50 clomid. 2500 pregnyl
semana 13 50 clomid.

aguaredo respuesta

semana------deca-------teto------win----nolva------provi
1---------- 400mg----500mg ----------------------------
2 -----------400-------500---------------20mg----25mg
3 ----------400--------500---------------20-------25
4----------- 400-------500----------------20------25
5-----------400-------500----------------20------25
6------------400-------500 -------20mg—20------25
7-------------400-------500-------20------ 20------25
8------------- 400--------500--------20 ------20------25
9--------------------------500-------20-------20-------25
10----------------------------------- 20---------20-------25
11------------------------------------20--------20------- 25
12,13,y 14 el post
mas o menos lo haria asi y el post tambien si acabas con el susta,si lo terminas conotra testo lo adelantaria una semana

De acuerdo con berrogeitabat lo que no se es tu peso y tu experiencias con los roids para poder ver si las cantidades que piensas usar sean aceptables :smiley:

Saludos :lol: :lol: :wink:

peso 87 kg-
exp- solo monociclos- deca otro de hemogenin y deca, anavar.
nunca un ciclo compuesto y bien detallado