Conclusiones de 1er Ciclo Winy-Primo-Proviron

AQUI LES DEJO EL CICLO QUE TENGO PENSADO EN HACER DENTRO DE 1 SEMANA:

PESO 84KGS 11% DE GRASA, MIDO 1.78MTS, 22 AÑOS, 5 AÑOS ENTRENADO, OBJETIVO: OBTENER CALIDAD MUSCULAR, DUREZA Y DEFINICION.

SEMANA—WINSTROL—PRIMOBOLAN—PROVIRON—NOLVALDEX—HCG—CLOMID
1-----------------150--------------300--------------25---------------0
2-----------------150--------------300--------------25---------------0
3-----------------150--------------300--------------25---------------0
4-----------------150--------------300--------------25---------------0
5-----------------150--------------300--------------25---------------0
6-----------------150--------------300--------------25---------------0
7-----------------------------------------------------25---------------0---------1250
8-----------------------------------------------------25---------------0---------1250
9-----------------------------------------------------25---------------30-----------------100
10----------------------------------------------------25---------------20------------------50

NOTA IMPORTANTE : USARIA LEGALON 2 SEM ANTES Y 2 SEM DESPUES DEL CICLO (1 PASTILLA EN LA MAÑANA Y 1 PASTILLA EN LA NOCHE) Y USA LIV.52 DURANTE EL CICLO (2 PASTILLAS EN LA MAÑANA Y 2 EN LA NOCHE)

esto esta mal por donde lo mires…

minimo 8 semanas para el primobolan y dejaria el winny de salida y le agregaria una testo puede ser propionato…
tenes que tomar nolvadex durante el ciclo eso es obligatorio si no keres tener gine…
el pct es corto…
el hcg es 1000 cada 3 dias al terminar o 500 cada 5 durante el ciclo…

saludos…

[size=5]
8 semanas de propionato le quedara el culo como colador jojo lo haria a 6 semanas algo asi:

100mg Propio EOD + 300mg Primobolan + 50mg Winstrol EOD y añadiria el postciclo… :smiley:
[/size]

Esta bien, aca el amigo ecko te quiso decir 100 mg de propio no 10, tanto el propionato como el estano tienen un tiempo de vida muy corto que te permiten empezar el pct en la semana siguiente al ultimo pincho, lo que no recuerdo es el tiempo de vida del primobolan, creo que es enantato asique talvez tengas que tomarte un par de semanas, luego verifico y te digo…saludos…

A ver concluyendo quedaria asi :

SEMANA—WINSTROL—PRIMOBOLAN—PROVIRON—NOLVALDEX—HCG—CLOMID—PROPIONATO
1-----------------50--------------300--------------25---------------10-----------0---------0------------100
2-----------------50--------------300--------------25---------------10-----------0---------0------------100
3-----------------50--------------300--------------25---------------10-----------0---------0------------100
4-----------------50--------------300--------------25---------------10-----------0---------0------------100
5-----------------50--------------300--------------25---------------10-----------0---------0------------100
6-----------------50--------------300--------------25---------------10-----------0---------0------------100
7----------------------------------------------------25---------------10---------1000
8----------------------------------------------------25---------------10---------1000
9----------------------------------------------------25---------------30--------------------100
10---------------------------------------------------25---------------20---------------------50

El Wisntrol 50mg E0D, EL Primobolan: 100mg lunes, 100mg miercoles y 100mg viernes y el propionato: 100mg EOD, el HCG E3D

NOTA: ES el 1er ciclo que haria

Les parece que esta bien asi???

si me parece bien a mi asi, talvez le añadiria una semana mas al post por las dudas pero asi no esta mal…saludos!

aber si quiere secar y conseguir dureza, calidad, con el ciclo wins y primo y agrenadole proviron no tendria que aver problemas de livido.

SEMANA-------WINSTROL-----PRIMOBOLAN—PROVIRON----------NOLVALDEX—HCG—CLOMID
1-----------------150--------------300--------------25----------------------0
2-----------------150--------------300--------------25----------------------0
3-----------------150--------------300--------------25----------------------0
4-----------------150--------------300--------------25----------------------0
5-----------------150--------------300--------------25----------------------0
6-----------------150--------------300--------------25----------------------0
7–1 pincho de 1250ui de hcg cada 3 dia(martes-viernes por ejemplo)-10
8-----------------------------------------------------------------------------30----------------100
9-----------------------------------------------------------------------------20----------------50

no aria falta nolva durante el ciclo pues este ciclo no aromatiza, seria muy muy muy raro que saliera gine.

Ok amigo esto se adapta y se parece mas a el ciclo q plantee al inicio, veo que dejas el proviron hasta la semana 6 pregunto ¿ porque no se puede dejar hasta la sem 9 ?. Veo que el HCG solo me dices que me coloque 2500UI en total en una sem, pregunto ¿ Por que no se puede colocar 5000UI en 2 semanas 1250 E3D o 1000 E3D ? ¿ Consideras que no hace falta tanta cantidad de HCG por los roids usados y en las dosis que se usaran ?

Gracias en espera de tu respuesta

no habia visto el proviron, esta bien como te dice titan no tiene sentido tenerlo tan largo aparte no podes estar tomando prov cuando empezas el pct logico, y 2500 ui te puede traer problemas de gine yo optaria por lo largo del ciclo a 5 x 1000 ui cada 3 dias en el pre post…saludos.

el proviron no se deja asta la 9 porque es un androgeno sintetico, y si lo que quieres es recuperar rapido y bien tu eje no te conviene meter androgenos exogenos. y se corta en la 6 porque a partir de esa semana ya no necesitas carga androgenica, ya dejas el wins y el primo y lo que se busca es recuperar el eje.

el hcg se mete en la semana 7 por ejemplo 1250ui el martes y 1250ui el viernes, solo se mete esa cantidad porque si te fijas las sustancias que usas en ese ciclo no aromatizan y con lo cual no le pega fuerte al eje hormonal, y el ciclo tambien es corto, con lo cual con esa cantidad va bien.

Ok amigo, aqui ya no hay mas nada que discutir, quedo claro y este ciclo lo empezare el lunes que viene

Gracias