Consejo !! Ciclo Testex-Deca-Primo-Wins

Hola, queria consejo sobre este mi 2º ciclo, tengo 30 años, mido 1,80, peso 74 kg , G.C 16% y llevo 4 años entrenando con pesas, tras leer bastante por aqui me e decidido a pedir opinion sobre este ciclo, seria mi segundo ciclo el primero lo hice hace 2 años.
Quiero coger unos kg de masa muscular y al final del ciclo definir, la verdad que quedar definido es lo que mas me importa, aunque no quiero quedarme muy delgado ya que mi peso actual es bajo.

Semana -Testex - Deca - Primo - Wins - Proviron - Novadex - HCG - Clomid
1 -------- 500------------------------------------------------------------------------
2----------500-----------------------------------25---------10-----------------------
3----------250-----250--------------------------25---------10-----------------------
4----------250-----250--------------------------25---------10-----------------------
5----------250-----250-----200-----------------25---------10-----------------------
6----------250-----250-----200-----------------25---------10-----------------------
7----------250--------------200-----150--------25---------10-----------------------
8----------250--------------200-----150--------25---------10-----------------------
9-------------------------------------150--------25---------10----1000ui------------------
10------------------------------------150--------25---------10----1000ui-------------------
11------------------------------------------------------------30----------------100-------------
12------------------------------------------------------------20-----------------50--------
13------------------------------------------------------------20-----------------50------

Un saludo y gracias por adelantado…

Semana -Testex - Deca - Primo - Wins - Proviron - Novadex - HCG - Clomid
1 -------- 500------400------------------------------------------------------------------
2----------500------400--------------------------25---------10------500--------------
3----------250-----200--------------------------25---------10-------500------------
4----------250-----200--------------------------25---------10-------500------------
5----------250-----200-------------------------25---------10-------500------------
6----------250-----200--------------------------25---------10-------500------------
7----------250-----200-----200-----150--------25---------10-------500------------
8----------250-----200-----200-----150--------25---------10-------500------------
9----------------------------200-----150--------25---------10-------500---------------
10---------------------------200-----150--------25---------10-------500------------------
11------------------------------------------------------------30----------------100-------------
12------------------------------------------------------------20-----------------50--------
13------------------------------------------------------------20-----------------50------

Un saludo y gracias por adelantado…
[/quote]

y si haces algo así?

Estoy abierto a todo tipo de consejos, en principio tras leer varios post,que mezclaban estas sustancias y ver el perfil de estas, este es el ciclo que me pantee, en un principio iba a meter Bolde en vez de Deca, pero me es mas dificil de conseguir.
Si no te importa, dame tu explicacion de las modificaciones del Deca y el primo, es para ir aprendiendo de mis herrores.
Lo de repartir el Hcg, en pinchos de 500ui, lo e descartado porque lo veo complicado dividir una ampoya en 5 pinchos, con el consiguiente riesgo de que se contamine la sustancia al guardar el resto.
Juntar en las mismas semanas el Wins con el Primo, supongo que sera para darle maximo aprovechamiento a esas semanas de definicion,¿ no ?
Con tantas semanas de deca, no atendre mucha retencion de agua??, es que no me gustaria taparme, ya que retengo agua y grasa con mucha facilidad, aunque llevo dieta a rajatabla.

yo quiritaria el primo ya que no me gusta pero si tu lo quieres usar úsalo de salida con el win para potenciar los 2 roids ya que son algo “livianos” el hcg puedes comprar de 500 o alguno en ampolla.
las cantidades de deca son mínimas… 200 para 8 semanas, si no quieres retener y ganar massa usa bolde, eso si tendrás que alargar el ciclo 2 semanas mas como mínimo. 4 semanas de deca como tenias tu no sirve de nada, el deca empieza a pegar a la 3 semana aprox.

Ok, pues en principio el ciclo quedaria asi :

Semana -Testex - Bolde - Wins - Proviron - Novadex - HCG - Clomid
1 -------- 500------300------------------------------------------------------------------
2----------500------300----------------25---------10-------500--------------
3----------250------300----------------25---------10-------500------------
4----------250------300----------------25---------10-------500------------
5----------250------300----------------25---------10-------500------------
6----------250------300----------------25---------10-------500------------
7----------250------300----------------25---------10-------500------------
8----------250------300----------------25---------10-------500------------
9----------250------300----150--------25---------10-------500---------------
10---------250------300----150--------25---------10-------500------------------
11---------------------------150--------25---------10-------500-----------
12---------------------------150--------25---------10-------500-----------
13---------------------------------------------------30------------------100
14---------------------------------------------------20-------------------50
15---------------------------------------------------20-------------------50

Lo realizare con Bolde,elimino el primo, e intentare repartir pinchos de HCH desde la 2ª semana hasta el final.
Muchas gracias y un saludo.

Bueno te corregí unas cositas ok
el HCG hasta la 10ª seria suficiente
Otra cosa el Wins habrá semanas que te tocaran 200mg y otras 150 ok
Saludos

Copiado !!!
Una ultima consulta, en el tema de la dieta, subire bastantes kcal las 8 primeras semanas para coger masa, a patir de aqui doy un bajon en las Kcal para para definir, ¿ no ? supongo que funcionara asi.
Un ejemplo, en las 8 primeras semanas llego a las 3500 kcal, en la 9 bajo a 2500 y voy bajando poco a poco para acabar en la semana 15 en 2000 Kcal.¿ Veis esto correcto ?