Duda HCG LEPORI 500ui

Buenas, miren e conseguido comprar en farmacia asi como si nada dos cajas de hcg lepori de 500ui que el total son 6 ampollas de 50ui cada una coon un total de 3000ui, y mi ciclo es este.
semana----sustanon-----trembolona----winstrol-----proviron----nolvadex-----omifin----hcg
--------------ew---------------eod-----------eod-----------ed-----------ed------------ed-------e3d
1-------------250-----------------------------------------------------------------------------------------
2-------------250---------------------------------------------25-----------10----------------------------
3-------------250---------------------------------------------25-----------10--------------------------
4-------------250---------------75---------------------------25-----------10---------------------------
5-------------250---------------75-----------50-------------25-----------10--------------------------
6-------------250---------------75-----------50-------------25-----------10---------------------------
7----------------------------------------------50-------------25-----------10---------------------1000–
8--------------------------------------------------------------25-----------10---------------------1000–
9----------------------------------------------------------------------------30-------------100-----------
10---------------------------------------------------------------------------20--------------50-----------
11----------------------------------------------------------------------------20-------------50----------

La pregunta es, ¿hay demasiado hcg para el ciclo k voi a hacer? Saludos espero k me respondan señores. saludos :wink:

Miren al final kedara asi mi ciclo.

-semana-----susta----------trembo--------wini----------provi-------tamo---------omifin----hcg
--------------ew---------------eod-----------eod-----------ed-----------ed------------ed-------e3d
1-------------250---------------75------------------------------------------------------------------------
2-------------250---------------75---------------------------25-----------10----------------------------
3-------------250---------------75---------------------------25-----------10--------------------------
4-------------250---------------75---------------------------25-----------10---------------------------
5-------------250---------------75-----------50-------------25-----------10--------------------------
6-------------250---------------75-----------50-------------25-----------10---------------------------
7----------------------------------------------50-------------25-----------10---------------------1000–
8--------------------------------------------------------------25-----------10---------------------1000–
9----------------------------------------------------------------------------30-------------100-----------
10---------------------------------------------------------------------------20--------------50-----------
11----------------------------------------------------------------------------20-------------50----------

O tambien podria kedar asi.
—semana-----susta-------primo------wini-----------provi---------tamo---------omifin------hcg

--------------ew---------------ew-----------eod-----------ed-----------ed------------ed-------e3d
1-------------250--------------200------------------------------------------------------------------------
2-------------250--------------200---------------------------25-----------10----------------------------
3-------------250---------------200--------------------------25-----------10--------------------------
4-------------250--------------200---------------------------25-----------10---------------------------
5-------------250--------------200-----------50-------------25-----------10--------------------------
6-------------250--------------200-----------50-------------25-----------10---------------------------
7----------------------------------------------50-------------25-----------10---------------------1000–
8--------------------------------------------------------------25-----------10---------------------1000–
9----------------------------------------------------------------------------30-------------100-----------
10---------------------------------------------------------------------------20--------------50-----------
11----------------------------------------------------------------------------20-------------50----------

PERO SIGO TENIENDO LA DUDA DEL HCG SALUDOS.
RECOMENDACIONES POR FAVOR. YA K AORA SI K VEO MAS ESTRCTURADO EL CICLO

—semana-----susta-------primo------wini-----------provi---------tamo---------omifin------hcg

--------------ew---------------ew-----------eod-----------ed-----------ed------------ed-------ew
1-------------250--------------200------------------------------------------------------------------------
2-------------250--------------200---------------------------25-----------10--------------------500------
3-------------250---------------200--------------------------25-----------10---------------------500—
4-------------250--------------200---------------------------25-----------10---------------------500–
5-------------250--------------200-----------50-------------25-----------10---------------------500-
6-------------250--------------200-----------50-------------25-----------10---------------------500–
7----------------------------------------------50-------------25-----------10---------------------500—
8----------------------------------------------------------------------------30-----------100---------
9----------------------------------------------------------------------------20------------50---------
10---------------------------------------------------------------------------20------------50-----------

Esta es la otra opcion saludos.

Hola PiPa
Ya sabes lo que opino de tu ciclo ok
Contestándote ha tu pregunta sobre el HCG
Considero que deberias hacer lo siguiente
1000ui cada 3 días hasta completar 5000ui en dos semanas es decir si empiezas Lunes 1000ui Jueves 1000ui
Domingo 1000ui Miércoles 1000ui Sábado 1000ui total 5000ui ok
O’Bien Lunes 1000ui Miércoles 1000ui Viernes 1000ui Lunes 1000ui Miércoles 1000ui total 5000ui ok
O también 500ui cada 5 días desde la semana 2 hasta la 8 ok
Saludos

Pues entonces mira, me recomendarias el ciclo k esta en la seccion de ciclos, el de wintrol y primobolan version actualizada? Pero En vede de como esta ai seria igualito, pero 200mg de primobolan durante las 6 semanas y 150 mg durante las 6 semanas? Asi podre definirme y conseguir un pelin de volumen? Espero tu respuesta! aunke ya compre todo el nolvaexx jajajaajaa y kon ese ciclo me sobraria muxo jaajjaj y una caja de omifin tb me sobraria xD! pero de hcg voi de puta amdre pork com te dije tengo dos cajas de 3 ampollas a 500ui cada una! sluds.