Enantato de Trembo 3 ml

Semana Dianabol Sustanon Decadurabolin Winstrol Proviron Nolvadex
(mg/ED (mg/sem) (mg/sem) (mg/EOD) (mg/ED)

1 25-------------250--------------200
2 25-------------250--------------200-----------------------------25-------------10
3 25-------------250--------------200------------------------------25-------------10
4 25-------------250--------------200-----------------------------25-------------10
5 -------------250--------------200-----------------------------25-------------10
6 ------------250--------------200-----------------------------25-------------10
7 -----------250--------------200---------------50-----------25-------------10
8 -----------250--------------200---------------50-----------25-------------10
9 ----------------------------------------------------50-----------25-------------10
10 -----------------------------------------------------50------------25--------------10

Queria preguntarles si seria conveniente meter Enantato de Trembolona y en que momento sería mejor, ya que me sobraron 3ml del ciclo pasado que realice.

Datos:
25 años
78kg
11% bf
Objetivo: Volumen

¿Que concentración de sustancia en mg trae esa trembolona?

Fíjate, en un ciclo si sobra algo es normal, a veces te ocurrirá, otras veces a lo mejor no. Pero es preciso entender, que cuando se estructura un ciclo con determinadas sustancias, no hay que ir garrapiñando todo el material sobrante del ciclo anterior, solo por fulirlo todo cuanto antes.

Por eso, para la riculidez que te puede servir el añadido de esa trembolona, y visto que tienes planeado un ciclo cojonudo, no le veo mayor sentido.

Ni se te ocurra combinar en un mismo ciclo deca y trembo

Perfecto, ya decidí no meter enantato de trembo jaja

Ahora les traigo una importante pregunta compañeros,

Sería más recomendable dividir la dosis de proviron y tomar 12.5 mg cada 12 horas, o es mejor una sola toma con los 25mg. ?

Gracias por sus respuestas.

el proviron en una sola toma no hay por que dividirla, la trembo sale sobrando como ya te dijeron tienes un buen ciclo si consigues las cosas de buena calidad te debe de ir muy bien.

Muchas gracias hermano