Enantato y Cipionato para definir

Buenas

MI entrenador me ha puesto:
200mg de testo cipionato 10 semanas
250mg de testo Enantato 10 semanas

Y mi pregunta es porque me mezcla esas 2 tetosteronas de vida larga, en un ciclo que es de definición… A continuación pongo en ciclo cosa que no ES LO IMPORTANTE DEL POST… TENGANLO EN CUENTA, Y NO EXPONGAN EL CICLO Y HABLEMOS DE PORQUE ESTAS 2 TETOSTERONAS Y NO EL PROPIONATO.

------Cipi-- Enan Trembo Winstro Provi Tamoxi HCG
1----200----250-----------------------------------25/dia------10/día-----
2----200----250-----------------------------------25/dia------10/día-----
3----200----250----200---------100--------------25/dia------10/día-----
4----200----250----200---------100--------------25/dia------10/día-----
5----200----250----200---------150--------------50/dia------10/día-----
6----200----250----400---------150--------------50/dia------10/día-----
7----200----250----400---------150--------------50/dia------10/día-----
8----200----250----400---------150--------------50/dia------10/día-----
9----200----250----200---------100--------------25/dia------10/día-----
10—200----250-----------------------------------25/dia------10/día-----
11----Esta semana me metió 4 ampollas de HCG de 2000 UI/una de ellas----
12---------------------------------------------------------------30/día
13---------------------------------------------------------------30/día

DIGANMELO PLZZ

te lo respondo en tres lineas TU ENTRENADOR SOLO QUIERE VENDER.

Aunque todo lo hace la dieta, y con la trembo y el wi bien puesto se puede definir un poco al final del ciclo, canviando también la dieta en este tramo.

El enanato es la testo que retiene mas, y se utiliza mas para volumen
El cypio retiene un poco menos y te da mas fuerza que otras. Tambien depende de la persona.

La verdad no lo entiendo el pq de estas y no propianato. Tendrias que preguntarlo a él.

2 testos, y encima retienen, un ciclo de definicion?? tu entrenador sabe muyyyyy poco :lol: te vas a llena como un glovito

incluso con propionato son muchas semanas de tren y wins y para meter la propio a 10 semanas necesitaras un anabolico base como primoloban y el postciclo esta mal y el hcg mejor intraciclo a 500 ui e5d.

¿Y los datos del usuario?

edad?,peso?,estatura?,bf%?,tiempo entrenando?,meta con el ciclo?

LO dije claramente este post no es para preguntar sobre el ciclo

SIno porque no entiendo que el entrenador me haya puesto a mi ese ciclo, con tanta tetosterona y no haberlo dejado solo en el cipionato, o mejor aun en Priopinato.

Tengo un enlace abierto solamente para hablar del ciclo, y hice este para hablar de este tema en concreto.

Sigan dando sus opiniones y porqué creen que lo pusieron así…

YO pienso que solo debería haber añadido propionato con la trembo los dias que toque y listo… un poquito de bolde + winstrol y ciclo hecho… (pero es mi opinión).

ESPERO VUESTRAS OPINIONES, gracias.

PUES PARA ESTAS DUDAS,LO DEBES HACER EN TU HILO Y NO ABRIR OTRO,POR LO TANTO HILO CERRADO EN EL QUE TIENES PREVIAMENTE SE TE CONTESTARA :x

La proxima vez dos ostias :mrgreen: