Mi tercer ciclo, opiniones porfavor?

semana–susta–bolde–winstrol–primobolan–hcg–nolvadex–
1 500 600 ?
2 500 600
3 500 600 10
4 500 600 10
5 500 600 10
6 500 600 10
7 500 600 10
8 500 600 10
9 500 600 150 200 10
10 500 600 150 200 10
11 150 200 10
12 150 200 10

Tengo 35 años, 3 años en el gym, mido 199 cm y peso 106 kilos.

Tengo varias dudas con este ciclo:
1º Tengo Deca y no se si meterlo tambien en el ciclo a 200 o 400 mg por semana pero supongo q van a ser muchos roids no?
2º El hcg no se si meterlo durante el ciclo a razon de 500 o en el post ciclo.
3º Tambien habia pensado en meter 250 mg de Tester junto al sustanon.
4º Creo q no voy a poder consegir proviron, pasa algo si no me lo tomo?
Tambien tomare Policolinosil, tres pastillas diarias durante todo el ciclo.
Se q tengo muchas dudas y lo siento pero quiero hacer las cosas bien.
Gracias por las ayudas compañeros.

mira compa yo aria varias cosas:
la bolde la primer la semana meteria 800mg y ya la segunda 600mg, y si quieres meter deca puedes hacer esto
semana 1–750mg susta, 800mg bolde
semana 2–500mg susta–600mg bolde–200mg deca
semana 3–500mg susta–400mg bolde–200mg deca
semana 4,5,6,7,8,9,10, igual que la semana 3.
el wins lo metes de la semana 9-12

para este ciclo mete mejor un IA, como arimidex o femara.
el hcg lo puedes meter como quieras, hay gente que lo prefiere en ciclo y otro al final.
que postciclo piensas hacer?

semana–susta–bolde–winstrol–primobolan–hcg–nolvadex–
1--------- 500----600-----------------------------?
2--------- 500----600
3--------- 500----600-------------------------------------10
4--------- 500----600-------------------------------------10
5--------- 500----600-------------------------------------10
6--------- 500----600-------------------------------------10
7--------- 500----600-------------------------------------10
8--------- 500----600-------------------------------------10
9--------- 500----600----150--------200-----------------10
10-------- 500----600----150--------200-----------------10
11-------------------------150--------200-----------------10
12-------------------------150--------200-----------------10

A ver si ahora se ve mejor

HCG 500UI e5d desde la semana 2.

**PCT ?
**

Exceptuando esto esta muy bien como lo has estructurado, aunque 4 semanas de primo 200mg/semana y con tu peso…, bueno si lo tienes ya usalo, pero yo lo reservaria para otro ciclo y compraría mas primo.

Si no puedes conseguir proviron no pasa nada, tu te conocerás mejor que nadie puesto que llevas varios ciclos hechos y sabras tu predispoción a los sides con los estrogenos, si has decido usar 10mg/dia desde la semana 3 es porque no has tenido problemas en otros ciclcos no?.. en cualquier caso ten a mano más tamox. en cuanto veas algun sintoma emplea 20mg/dia.

También puedes usar un IA como te propone titan, más caro pero una buena opción en este caso ya sabes el tamox. fuera en el ciclo.

Gracias por las respuestas.
El Primobolan a q dosis lo meto y cuantas semanas?

Susta y bolde es un muy buen ciclo para ganancias magras, el primo es bastante similar a la bolde, con la excepcion de que es bastante más caro y mucho más dificil de conseguir ya que hay muchisimo fake de este roid, he llegado a ver falsificaciones casi perfectas de primo schering. La cuestion es que en el ciclo que propones(500 de susta y 600 de bolde)no necesitas mas carga anabolica, es un ciclo idoneo per se y no hay necesiadad de incluir primo, como te recomendé reservalo para otro ciclo. Al menos es lo que yo haria.

Si no me haces caso :twisted: lo idoneo es usar un min, 5 ó 6 semanas no menos de 300mg/semana

Gracias Mav3rick11, lo hare como me dices, no metere primo, aun no lo habia comprado asi q dinero ahorrado, saludos amigo.

Tengo otra duda, el Deca no lo voy a meter pero puedo meter trembolona? Y otra duda, la boldenona me metere 600 por semana pero lo hago repartido en dos dias a la semana? Ya q veo q meterme 12 ml de un tiron es demasiado, gracias.

Si podrías usar trembo acetato para salir las 4-5 ultimas semanas.

Respecto a la administración de la bolde, como tienes la version de 50mg/ml debes repartir los pinchos a lo largo de la semana, yo haría;

lunes 4ml de bolde en un gluteo y 1ml de susta.
miercoles 4ml de bolde dividido en ambos gluteos/ puedes usar tb cuadriceps.
viernes 4ml de bolde en el otro gluteo y 1ml de susta.

durante el ciclo te vas a arrepentir de no haber conseguido otra bolde :mrgreen:

Gracias de nuevo Mav3rick11, me has sido de gran ayuda.

Ufff, sigo con mas dudas, os explico, no se si hacerme el ciclo numero 1 o el 2, ayuda please.

CICLO Nº 1:
semana–susta–bolde–deca–winstrol–hcg–nolvadex–proviron
1--------- 500----450----200---------------------------------------
2--------- 500----450----200---------------------------------------
3--------- 500----450----200-------------500-----10---------25
4--------- 500----450----200-------------500-----10---------25
5--------- 500----450----200-------------500-----10 --------25
6--------- 500----450----200-------------500-----10 --------25
7--------- 500----450----200-------------500-----10---------25
8--------- 500----450----200-------------500-----10 --------25
9--------- 500----450----200—150------500-----10---------25
10-------- 500----450----200—150------500-----10---------25
11--------------------------------150--------------------------
12--------------------------------150--------------------------

CICLO Nº2:

semana–susta–bolde–trembolona–winstrol–hcg–nolvadex–proviron
1--------- 500----450----200---------------------------------------
2--------- 500----450----200---------------------------------------
3--------- 500----450----200--------------------500-----10---------25
4--------- 500----450----200--------------------500-----10---------25
5--------- 500----450----200--------------------500-----10 --------25
6--------- 500----450----200--------------------500-----10 --------25
7--------- 500----450----200--------------------500-----10---------25
8--------- 500----450----200--------------------500-----10 --------25
9--------- 500----450----200------------150----500-----10---------25
10-------- 500----450----200------------150----500-----10---------25
11-----------------------------------------150------------------------
12-----------------------------------------150------------------------

En los ciclos puedo meter 750 de sustanon y no 500 como sale reflejado o es demasiado?
En el 2º ciclo no se si esa cantidad de trembolona esta bien, cual suele ser el minimo y el maximo q se puede meter a la semana?
Cual de los dos ciclos va mejor?
Y por ultimo, me han aconsejado q el hcg me lo meta en el post ciclo y no durante, como va mejor?
Gracias.

No entiendo, por qué te complicas?

la opcion que habias decido estaba perfecta!

si quieres meter algo mas emplea trembo acetato para salir, pero no mas de 4-5 semanas

el hcg en un ciclo como los que plantas mejor desde la semana 2 500UI e5d.

Opino lo mismo que Mav3rick11, no te compliques el primero que comentaste esta perfecto para un tercer ciclo, Suerte y animo.

:smiley: :smiley: :smiley:

Gracias por la ayuda y teneis razon, no me complico mas con el ciclo, lo quiero hacer lo mejor posible y por eso estoy cambiandolo tantas veces y lo q hago es empeorarlo.
Lo dejo asi:
Semana de la 1 a la 10 500 mg de susta.
Semana de la 1 a la 10 450 de bolde.
Semana de la 9 a la 12 150 de winstrol
Semana de la 6 a la 10 trembolona.
Cuanto de trembo me pongo por semana?
Con la bolde he bajado la dosis de 600 a 450 pq solo dispongo de 4500 mg y no me pueden consegir mas.

La trembo métela junto al wins de la nueve a las semana 12, yo ya lo hice así. Si es acetato tienes que picarte eod o dicho de otra forma día sí y día no. El mínimo que marca su perfil es de 225 mg a la semana si no me equivoco.

Es una droga muy fuerte por lo que yo tuve que bajarla a 150 mg a la semana y aún así pegó durísimo. Claro, mido 30 cms menos que tú jajaja eso me imagino que tiene que ver. Creo que por tu estatura los 225 los aguantas sin problemas.

Sólo mentalizate cuando lo tomes porque vas andar bien locochón jajajaja

No sabia que dependiendo la estatura o puede aplicarse mas o menos??? :o :o

:smiley: :smiley: :smiley:

Es burla o qué compadre? por eso pongo que “me imagino” que la estatura-peso tiene que ver, seguramente debes ser un gurú en todos estos temas

en ningún momento aseguro nada, sin embargo parecería lógico pensar eso… saludos sabelotodo

g) Buscar las dosis de esteroides adecuadas para mi:

Respetando el límite mínimo y máximo de las dosis para cada esteroide anabolizante a utilizar en su ciclo. Busque la dosis adecuada en el perfil de dicho anabolizante (aquí les dejamos el enlace a nuestra sección destinada a los perfiles de los esteroides: http://www.tupincho.net/Perfiles_de_esteroides_anabolicos_drogas). Tenga en cuenta su peso corporal. Por ejemplo la testosterona no se recomienda en dosis menores a 250 mg/semana ni mayores a 750 mg/semana. Si usted está flaco como un palillo con 250 mg le basta. Si usted está moderadamente musculado necesitara 500 mg y si usted es una pared ambulante, sin duda, necesitara 750 mg para subir aún más, salvo que sea su primer contacto con los anabolizantes, momento en el cual el organismo es especialmente sensible a estas sustancias.

Esto lo saqué de este mismo sitio wey

Gracias, “Jefe”, (jajajajajajaja).
“Te admiro” acuerpado…
Es broma… :smiley: :smiley: :smiley:
Me aclaraste la duda Thanks champion :lol: :lol: :lol: