Preparación de Ciclo

Buenas señores soy nuevo por aquí, me que me aconsejaran sobre este ciclo a ver si lo veis bien, aunque me falta pulir las cantidades diarias, a ver que me podéis decir:

sem 1-4

30 mg dianabol - 100 mg deca - 200 de primo - 250 susta
sem 5-8

100 deca - 200 primo - 250 de susta

semana 9

hcg de 1500 (lunes miércoles viernes)

semana 10-11

50 mg clomid

semana 2-11

10 mg tamoxifeno

El dianabol serían 3 orales al día en lunes miércoles y viernes
El Hcg pincharlo unos 22-23 días después del último pinchazo de susta, ampolla día si día no.
Clomid dos pastillas por día desde la semana 10 a la 11 y media pastilla de tamoxifeno desde la semana 2 a la 11 diaria.
El deca, primo y susta tenía pensado aplicar martes y jueves la mitad de lo que pone cada semana.

Que os parece, se puede plantear de una manera más efectiva? quitaríais algo o al contrario?

Gracias anticipadas.

Perdonad, tengo 27 años, llevo un par de años en el gimnasio aunque no todo lo permanente que quisiera, 1,80 m, 75 kg, un 14% de grasa aprox.

Hola, no se entiende muy bien el planteamiento, sería mejor si lo pones en una tabla.
De entrada te comento que no tiene mucho sentido meter primo, por que basicamente estás haciendo un ciclo de volumen, el dianabol, el deca y la testo retienen líquido, así que en este caso la acción del primobolan ni la vas a notar, sería un desperdicio.
Mejor sube el deca a 200-300 mg semanales. Por lo demás en general está bien, pero mejor postealo en una tabla.

Disculpad la demora, voy a plantearlo de la mejor manera posible a ver si me pueden ayudar a estructurarlo:

Es un ciclo de 8 semanas, más 3 de post ciclo, a emplear las primeras 4 semanas:

Winstrol Oral 25 mg ED
Deca 200 mg EW
Susta 250 mg EW

y las cuatro restantes:

Wins Inyectable 150 EW
Primo 200 EW
Testoviron 250 EW

En el post ciclo a emplear Tamoxifeno, clomid, legalon y HCG.

----------mg(EW)----mg(ED)------mg(EW)----mg(EW)----mg(EW)------mg(EW)----UI(EW)—mg(ED)—mg(ED)----mg(ED)
semana----susta----wins oral------deca--------Primo------Wins Iny------Testoviron-----HCG------clomid—tamox-----Legalon 150
----1--------250-------25------------200-----------------------------------------------------------------------------10-----------600
----2--------250-------25------------200-----------------------------------------------------------------------------10-----------600
----3--------250-------25------------200-----------------------------------------------------------------------------10-----------600
----4--------250-------25------------200-----------------------------------------------------------------------------10-----------600
----5------------------------------------------------200---------150------------250----------------------------------10-----------600
----6------------------------------------------------200---------150------------250---------------------------------10------------600
----7------------------------------------------------200---------150------------250---------------------------------10------------600
----8------------------------------------------------200---------150------------250---------------------------------10------------600
----9------------------------------------------------------------------------------------------2000-4000------------10-------------600
—10---------------------------------------------------------------------------------------------------------50------10-------------600
—11---------------------------------------------------------------------------------------------------------50------10-------------600

Con respecto al Post no se si el HCG sería mejor utilizar esa cantidad o más en esa semana o utilizar 500 UI durante todo el post.

Las cantidades a utilizar de cada producto son las siguientes:

x c/ Wins oral
8 DECA de 100 mg
4 SUSTA 250 mg
12 WINS inyectable de 1 ML.
8 PRIMO de 100 mg.
10 TESTOVIRON de 100 mg.
1-2 HCG de 2000 UI
2 c/ PROVIRON (20 comp.)
1 c/ Tamoxifeno 20 mg (60 comp)
x c/ legalon 150 (20 comp.)
1 c/ clomid

Lo plantearíais de una manera mejor? Gracias.

No se entiende así tampoco? :frowning:

ese ciclo esta mal estructurado estas mesclando roid que son para volumen con roid que son para definir entre otras cosas , hechale un vistazo a los ciclos basicos para que te agas una idea

y dinos que es lo que pretendes conseguir , volumen masa magra o definicion.

antes de nada debes de tener claro cual es tu objetivo,definicion,masa magra o volumen…a partir de ahi elige un roid u otro…porque estas mezclando por mezclar…en mi firma esta el link de los pefiles de cada droga…leetelo

Mi intención es volumen, pero no de manera exagerada, me han aconsejado que estructurara algo así para subir y al final “definir un poco y endurecer” en un primer momento iba a poner dianabol en lugar del Wins oral, pero la retención de líquido del diana me tira para atrás…

Que sustancias pondríais en lugar de otras?

hechale un vistazo a lo ciclos basicos ahi hay uno de volumen.

El primero sería un ciclo de volumen:
semana.dianabol(ed)…deca(ew)…sustanon(ew)…proviron(ed)…tamo(ed)…hcg(e3d)
1…25…200…250…
2…25…200…250…25…10…
3…25…200…250…25…10…
4…25…200…250…25…10…
5…200…250…25…10…
6…200…250…25…10…
7…200…250…25…10…
8…200…250…25…10…
9…25…10…1000…
10…25…10…1000…
11…30…
12…20…
13…20…

puedes optar por poner de salida wins inyectable…para salir mas duro y sacar el agua que te haya dado el diana…intenta comer bajo en sodio(poquisima sal)y asi no retendras tanto…

Ok, muchas gracias :wink:

Por otro lado he preguntado en la farmacia y les sale que el clomid está discontinuada su venta en farmacias… por lo menos en la que pregunté… es cierto esto?