Que les parece el ciclo que modifique

semanas—D-Bol-----Susta 250—wyni------proviron—nolva----legalon

1------------25--------- 250-------- 50------------------------------------6
2----------- 25----------250-------- 50----------25----------20----------6
3----------- 25--------- 250-------- 50----------25--------- 20--------- 6
4-----------25---------- 250-------- 50----------25----------20--------- 6
5------------------------250--------------------- 25--------- 20--------- 6
6------------------------ 250--------------------- 25--------- 20--------- 6
7------------------------ 250-------- 50--------- 25--------- 20--------- 6
8------------------------ 250-------- 50--------- 25----------20--------- 6
9-------------------------------------50----------25--------- 20----------6
10------------------------------------50----------25-------- 20----------6
11 hcg (500) u.i-------------------------------- 25----------20----------6
12HCG (5000) u.i --cloim 100 mg/dia-------- 25--------- 10--------- 6
13clomid 100 mg/dia---------------------------25-----------10----------6
14cloimd 50mg/dia 25 10 6
nota: si consigo d-bol original los hago junto con winy pero si no consigo lo hago solo winstrol
nota 2: si el winstrol es tbs 50 mg todos los dias si es depot 50mg interdiarios
mido 1:76 peso 79 kilos edad 21 casi 22

me olvide llevo casi 1 año entrenando y el % de grasa es del 15 a 18 ya que saque de modo casero :? es el primer ciclo que voy hacer como la gente creo anteriormente hice un mono ciclo con winstrol va ni ciclo se llamo eso pero bue con este ciclo que esta arriba quiero que mis musculo crezcannnnnnnnnnnnnnnnn :twisted: :evil: :twisted: cuando termien el ciclo tomare clenbuterol como esta en el post de oso polar para quemar la grasa que tendria al haber terminado el ciclo