QUE OS PARECE ESTE CICLO PARA MI?

SEMANA-- DECA----- TEXTOVIRON---------- DIANABOL WINSTROL
1---------- 400 MG----400 MG----------------- 175(5 pasti diario)
2---------- 400-------- 400--------------------- 175
3---------- 400---------400---------------------175
4---------- 400-------- 400---------------------175
5---------- 400-------- 400---------------------------------- 150mg (EOD)
6---------- 400-------- 400---------------------------------- 150
7---------- 400-------- 400--------------------------------- 150
8---------- 400-------- 400---------------------------------- 150

EL POST.			

SEMANA-- proviron-- Novaldex)- HCG ---- Clomid - LEGALON–clenbuterol
1----------- 50 mg----- 10------------------------------------2-----------
2----------- 50 ---------10 ---------------------------------- 2-----------
3----------- 50----------10----------------------------------- 2-----------
4----------- 50----------10----------------------------------- 2-----------
5----------- 50----------10----------------------------------- 2-----------
6-----------50---------- 10----------------------------------- 2-----------
7----------- 50----------10----------------------------------- 2-----------
8----------- 50----------10----------------------------------- 2-----------
9----------- 50--------- 20 mg----------------- 100MG-----2---------- 2 pasti
10----------50--------- 20--------------------- 50MG------ 2---------- 3
11----------50--------- 20--------- 2500 IU— 50 MG----- 2------------
12--------- 50---------------------- 2500 IU---------------- 2------------
13-------------------------------------------------------------2----------- 2
14------------------------------------------------------------ 2----------- 3
15------------------------------------------------------------ 2-----------
16------------------------------------------------------------ 2-----------

:shock: :shock: :shock: …175… :shock: :shock: :shock: …

IMAGINO QUE TE HABRAS EQUIVOCADO AL ESCRIBIR LAS DOSIS DEL DIANABOL… 20mg diarios durante las 4 primeras semanas seria lo logico.

En cuanto a lo deque si ese ciclo es bueno para ti, pues la verdad como no postees mas datos:

  • Estatura, peso, % grasa corporal, años de entrenamiento…

Desde luego es un ciclo de masa bastante fuerte, yo particularmente a excepción del dianabol (este roids no me gusta nada) lo veo bién estructurado.

Si yo fuera tu lo haría algo mas suave usaria el Deca a esas dosis pero lo cortaria a la semana 6, el enantato lo bajaria a 250mg durante 6 semanas… pero todo depende de lo que busques, desde luego con ese ciclo vas a crecer.

Suerte y dale duro que seguro que con ese ciclo te haces enorme.

Es el post ciclo esta mal :evil: :evil: :evil: :evil: No respetas los 21 dias para hacerlo.
Y si eres el Morpheo que sales en unas fotos arriba con un audi te recomiendo que bajes un poco tu % de grasa sino te vas a quedar como un globo.
Un saludo

lo veo un ciclo muy potente para ser el 1º :lol: :lol:

resp

Bueno yo lo dejaria asi:
----------DECA-----ENANTATO—DIANABOL–WINSTROL–PROVIRON
sem1-----300mg-------------------20mg---------------------------------
sem2-----300mg------250mg-----20mg--------------------------------
sem3-----300mg------250mg-----20mg----------------------25mg
sem4-----300mg------250mg-----20mg----------------------25mg
sem5-----300mg------250mg---------------------------------25mg
sem6-----300mg------250mg-------------------150EOD-----25mg
sem7-----300mg------250mg-------------------150EOD-----25mg
sem8-----300mg------250mg-------------------150EOD-----25mg
sem9-------------------250mg-------------------150EOD-----25mg
sem10-----------descanso-------------------------------------25mg

-----------CLOMID------HCG---------------------PROVIRON
sem11----50mg-----------------------------------25mg
sem12----50mg-------2.500iu--------------------25mg
sem13----50mg-------2.500iu--------------------25mg
sem14----50mg-----------------------------------25mg

EL NOLVADEX TU VES , SI ES NECESARIO DEPENDE SI SOS PROPENSO A LA GINECOMASTIA…
EL LEGALON DESDE LA 1 SEM HASTA FINALIZAR TODO 2 CAPSULAS DE 150.
Suerte y exitos totales.¡¡

Yo de eso ciclo solo camviaria una cosa del post haria un pincho de hcg 500, i el otro de 2500,por lo demas todo bien claro usa legalon y si puedes s-amet al final de este.

Yo lo veo todo bien.Igual empezar la testo la primera semana o hacer un Front load pero eso ya a tu gusto.

Un Saludo

perdon me falto un cero un pincho de 5000, y el otro de 2500.