¿que os parece este ciclo?

¿Como ven este ciclo?No deberia subir mas el deca en la mitad del ciclo?

Sem.----Proviron-----Deca----Winstrol tabs-----Serophene-----HCG
-----------mg/dia----mg/sem------mg/dia------------mg/dia-----U.I/SEM

1-------------------------200
2-----------50-----------200
3-----------50-----------200
4-----------50-----------200
5-----------50-----------200----------20
6-----------50-----------200----------20
7-----------50-----------200----------20
8-----------50-----------200----------20
9-----------50-----------200----------20
10---------50-----------200-----------20
11---------50--------------------------20
12---------------------------------------------------------100------- 5 000
13---------------------------------------------------------50---------2 500
14---------------------------------------------------------50---------2 500

no pajarito nooouu weiiii, te van a poner lo tipico colegui… lee un poco mas patatin patatan; lee por lo menos el perfil del deca de esta misma web y intenta sakar mas conclusiones xD ( DECA SIN TESTO = PAJARITO OFF)

ademas de lo que te comenta mucho hcg para ese ciclo si se puede llamar asi lee un poco