Retoques para este ciclo

Buenas amigos, el caso es que un amiguete queria hacer un ciclo de definicion y queria haceros unas preguntas…
Yo le recomende popionato pero solo pudo encontrar sustanon…
¿Es aconsejable este roid para definicion?
Les dejo aqui la tabla para que modifiquemos entre todos los errores

SEMANA------SUSTA-----WINS------PRIMO------PROVIRON--------TAMOX-------CLOMID--------HCG(e3d)
1--------------250--------------------300-----------------------------------------------------------------
2--------------250--------------------300----------25----------------10----------------------------------
3--------------250--------------------300----------25----------------10----------------------------------
4--------------250--------------------300----------25----------------10----------------------------------
5--------------250--------50---------300----------25----------------10----------------------------------
6--------------250--------50---------300----------25----------------10----------------------------------
7--------------250--------50-----------------------25----------------10-----------------------------------
8--------------------------50-----------------------25----------------10------------------------------1250
9--------------------------50-----------------------25----------------10------------------------------1250
10---------------------------------------------------------------------30--------------100------------------
11---------------------------------------------------------------------20--------------50-------------------
12---------------------------------------------------------------------20--------------50-------------------

Bueno el susta y el primo serian mg semanales
El wins 50mg dia si dia no
proviron tamoxifeno y clomid, diario.
hcg cada 3 dias

Gracias d antemano, un saludo! :slight_smile:

Alguien que me eche una manilla por favor

SEMANA------SUSTA-----WINS------PRIMO------PROVIRON--------TAMOX-------CLOMID--------HCG(e3d)
1--------------250--------------------300-----------------------------------------------------------------
2--------------250--------------------300----------25----------------10----------------------------------
3--------------250--------------------300----------25----------------10----------------------------------
4--------------250--------------------300----------25----------------10----------------------------------
5--------------250-----------------300----------25----------------10----------------------------------
6--------------250-----------------300----------25----------------10----------------------------------
7--------------250--------50-----300--------------25----------------10-----------------------------------
8--------------250--------50-----300-----------------25----------------10-----------------------------------
9--------------------------50-----------------------25----------------10------------------------------1000ui
10------------------------50----------------------25-------------------10-----------------------------1000ui
11---------------------------------------------------------------------30--------------100-------------------
12---------------------------------------------------------------------20--------------50-------------------
13---------------------------------------------------------------------10--------------50

asi estaria mejor :wink:

ok man muchas gracias :slight_smile: entonces el susta es valido no?


este ciclo no seria totalmente de definicion !! como te lo propuse a 8 semanas sostenon y primo y saliendo con win ,si ase una buena dieta al principio y al final del ciclo le dara una gancia muscular marcada y tal vez aumente unos 5 o 6 kilitos en calidad.

perfecto entonces 8) le paso el retocado.

Muxas graciass tio se agradece :wink: