Terminar de ajustar 1º ciclo

Buenas llevo un tiempo planeando el ciclo y quiero comenzarlo para septiembre, asi que quiero terminar de juntar todo, a ver que les parece, tengo 25 años mido 1.76 y peso 77 kilos con un 13% de grasa, llevo entrenando por mas de 2 años, este seria mi primer ciclo a ver si mas o menos lo tengo bien planteado es un ciclo para masa magra, quedaria una cosa asi.
Testo—Deca—Winstrol—Fenara—Proviron-HGC—Novaldex
-250----250-----------------2.5----------------------------
-250----250-----------------2.5-----------------500----------
-250----250-----------------2.5-----------------500----------
-250----250-----------------2.5-----------------500----------
-250----250-------50--------2.5-------25-------500----------
-250----250-------50--------2.5-------25-------500----------
-250----250-------50--------2.5-------25-------500----------
-250----250-------50--------2.5-------25-------500----------
--------------------50--------2.5-------25-------500----------
--------------------50--------2.5-------25-------500----------
-------------------------------2.5-------------------------30—
----------------------------------------------------------20—
----------------------------------------------------------10—

La cosa creen que 6 semanas con wins sera demasiado? la cosa quedaria la testo para el lunes y el deca para el jueves, la hgc seria cada cinco dias tras la segunda semana y el wins quedaria para lunes, miercoles y viernes, los mismos dias que tomaria el fenara, alguna propuesta? bajo el wins a 4 semanas y lo puedo dejar en seis?

**Hola

Bueno deberias replantearte el ciclo te cuento ok
Por lo que veo buscas volumen y definición
Repleta lo siguiente ok
semanas 1 ala 6 250mg susta y 200mg deca
Semanas 7 ala 8 300mg propionato y 200mg deca y 150mg Wins
semanas 9 ala 11 300mg propionato y 150mg wins
Y también podrías hacer un Kit Star de dianabol Semanas 1 ala 4 25mg diarios
El Fenara creo que es parecido al arimidex por lo que no lo mezcles con el tamoxifeno y el Priviron ok
el Hcg desde la semana 2 asta la 11 500ui cada 7 días ok
No obstante después de hacerte algunas aclaraciones seria importante que le echaras un vistazo a los links de mi firma para informarte mucho mejor ok
saludos**

Gracias por la aclaración mi intencion en este primer ciclo va mas orientado a obtener el maximo posible de masa, ya definire, el femara si es parecido arimidex, seguramente hare un kick star con dianabol las cuatro primeras semanas, entonces mejor dejo el wins en cuatro semana, de todas formas hecho un vistazo!