Ultimando detalles ciclo Mayo 2011

Sustanon-Propionato-Primobolan-Oxandrolona-Dianabol-Trenbolona-Winstrol
(mg/sem)-(mg/sem)–(mg/sem)—(mg/sem)–(mg/EOD)-(mg/sem)-(mg/sem)

1---- 1000----------600-----------30
2---- 500-----------600-----------30
3---- 500-----------600-----------30
4---- 500-----------600-----------30
5---- 500-----------600-----40
6---- 500-----------600-----40
7---- 500-----------600-----40
8---- 500-----------600-----40
9---- 500-----------600-----40
10----500-----------600-----40
11----------500-----600-----40---------300----150
12----------500-----600-----40---------300----150
13----------500-----600-----40---------300----150
14----------500-----600-----40---------300----150
15----------500-----600-----40---------300----150
17----------500-----600-----40---------300----150
18----------500-----600------40--------300----150

5 años de entreno, 80 kilos, 1,75 y 40 años. Buscando ganar algo de masa de calidad y definir a saco por una vez.
La idea es hacer algo más fuerte que otras veces y cerrar las últimas semanas del ciclo con Trenbo y Winstrol que tienen buena sinergia. Una duda es si usar 800mg de Primo hasta que empiezo con la trenbo, o mantenerlo a 600mg durante todo el ciclo. Haría un kick start de Sustanon la primera semana, y picotearía unos 30mg de Dianabol las 4 primeras semanas (sólo los días de entreno)
Durante ciclo y post ciclo usaré Proviron, Aromasín, Clomid…
Como lo veis? Gracias por vuestras opiniones y consejos :wink:

Cuantos ciclos has hecho, porque ademas de cargado es largo de narices…

Es mi 4º ciclo. Sé que es largo, me gusta hacer 1 solo ciclo al año de 16 semanas, despues tengo muchos meses para recuperar el eje, no sé si es lo apropiado, no me funciona mal del todo.
Un saludo y gracias

Yo cambiaria el primo por bolde y haria esto

sustanon-Propionato-boldenona-Oxandrolona-Dianabol-Trenbolona-Winstrol-Tamo-Provi-HGC-Clomid
----EW-------EOD-------EW----------ED------------ED--------EOD--------EOD-----ED-----ED–E5d—ED
1—500--------------------600------------------------40-----------------------------20-----25-----------
2—500--------------------600------------------------40-----------------------------20-----25–500------
3—500--------------------600------------------------40-----------------------------20-----25–500------
4—500--------------------600------------------------40-----------------------------20-----25–500------
5—500--------------------600--------------------------------------------------------20-----25–500------
6—500--------------------600--------------------------------------------------------20-----25–500------
7—500--------------------600--------------------------------------------------------20-----25–500------
8—500--------------------600--------------------------------------------------------20-----25–500------
9-------------150----------600-------40------------------------75-----------100-----20-----25–500------
10------------150----------600-------40------------------------75-----------100-----20-----25–500------
11------------150----------600-------40------------------------75-----------100-----20-----25–500------
12------------150----------600-------40------------------------75-----------100-----20-----25–500------
13------------150---------------------40------------------------75-----------100-----20-----25–500------
14------------150---------------------40------------------------75-----------100-----20-----25–500------
15--------------------------------------------------------------------------------------30-----------------150
16--------------------------------------------------------------------------------------20-----------------100
17--------------------------------------------------------------------------------------20------------------50

Que conste que YO no usaria dos orales en mi opinion sobre la oxa con el propio+trem+wins vas SOBRADO, el primo lo he cambiado porque son demasiadas semanas para el primo.

Gracias por tus respuestas Illy, respecto al Primobolan siempre oí que era un buen esteroide para ciclos largos, yo las veces que lo he usado he notado ganancias a bastante largo plazo. La Boldenona nunca la he usado, en otro post ayer precisamente preguntaba por ella, pues la verdad es que siempre he oido opiniones bastante contradictorias, gente que les funciona bien, gente que no, aumento de apetito y sensación de malestar y mal humor (todo lo contrario del Primo). Económicamente es mas viable la bolde.
No me parece mal el ciclo que propones, son 4 semanas menos, y 2 semanas menos de “tralla final”
Respecto a la oxandrolona la tengo un poco de comodín, otras veces me ha funcionado bien, aunque ésta vez es de Geneza y no sé que tal funcionara, siempre se puede guardar para otra ocasion
Un saludo

yo prefiero el primobolan que la bolde, aparte que esta ultima me disparó la presión como en la 9na semana, pero a mucha gente le gusta. De que funciona funciona, eso sí, tarda horrores en pegar. Me gusta el ciclo que te puso Illy

Ciclo muuuuy largo y a esa edad (poco falta para llegarle jejeje restan 3) la recuperacion sera algo costosa,para ser mas enfatico el ciclo lo dejaria asi:

sustanon-Propionato-boldenona-Oxandrolona-Dianabol-Trenbolona-Winstrol-Tamo-Provi-HGC-Clomid
----EW-------EOD-------EW----------ED------------ED--------EOD--------EOD-----ED-----ED–E5d—ED
1—500--------------------600------------------------40-----------------------------20-----25-----------
2—500--------------------600------------------------40-----------------------------20-----25–500------
3—500--------------------600------------------------40-----------------------------20-----25–500------
4—500--------------------600------------------------40-----------------------------20-----25–500------
5—500--------------------600--------------------------------------------------------20-----25–500------
6—500--------------------600--------------------------------------------------------20-----25–500------
7—500--------------------600----------------------------------75----------100------20-----25–500------
8—500--------------------600-------40------------------------75-----------100-----20-----25–500------
9-------------150----------600-------40------------------------75-----------100-----20-----25–500------
10------------150----------600-------40------------------------75-----------100-----20-----25–500------
11------------150---------------------40------------------------75-----------100-----20-----25–500------
12---------------------------------------------------------------------------------------20---------500------
13--------------------------------------------------------------------------------------30-----------------150
14--------------------------------------------------------------------------------------20-----------------100
15--------------------------------------------------------------------------------------20------------------50

Como ves todo queda a la salida si lo que quieres es salir apretado,a mi gusto y siempre hago enfasis la dieta lo hace todo de ser tu me quedo con trembo de arranque y wins+oxa de salida,cambiaria nolva+provi por arimidex.

En fin el que tiene la ultima palabra eres tu… 8)

Gracias Oldman, se valora tu aportación. El tema del HCG ahora está complicado, aunque tengo una caja de 5000ui, pero no sé cómo hacerlo para usar 500ui E5D
Mi intención era hacer éste ciclo “potente” y ya los ciclos siguientes sólamente de primobolán y un poco de dianabol preentreno (provirón si acaso)
Un saludo

Diana+primo no me cuadra :? un roid de definicion con uno que retiene liquidos :? lo del HCG de cuantos ml es y cual es su concentracion?

Dianabol en dosis pequeñas (30-40mg/día de entreno) tiene muy buena sinergia con la metenolona y es bastante sano, es mas, era un combo muy usado por Arnold

El HCG que tengo es el Pregnyl 5000 de Organon, que vienen 3 ampollas + 3 de solvente. Nunca he usado HCG :oops:

Yo estoy deacuerdo con Oldman, no usaria primo con diana, en todo caso oxa pero diana nunca.

Jajaja eso es pequeñas dosis?sabias que Arnold nunca recuperaba el eje al termino del ciclo?todos ellos usaban Diana como arroz!!no veo lo sano por ningun lado :twisted: todos los EAAs pegan al eje,cuando hagas el PCT veras la diferencia sobre todo por el uso de HCG.