ultimo retoque 24 HORAS antes de empezar.....

Sema… Deca …Textes … Winstrol(dia)…Nolvadex(dia)…HCG /semana

1---------300-------250 -------------------10
2---------200-------250 -------------------10
3---------200-------250--------------------10
4---------200-------250--------------------10
5---------200-------250--------------------10
6---------200----------------.20 mg ------10
7---------200-----------------20 mg ------10
8------------------------------20 mg ------10
9------------------------------20-mg-------10 mg
10-------------------------------------------10 mg -------2500iu
11-------------------------------------------10 mg -------2500iu
12----------------------------------------------------------2500iu
como tomo el tamoxifeno ???

legalon 150 2 o 3 al dia

bcaa´s 2 antes y 2 depues de entrenar
1 gr vit c desayuno
2 batidos de proteico al dia
una pastilla de benexol en el desayuno

ESTO ES TODO NO TENGO NI UNA SOLA AMPOLLA MÁS DE TEXTO Y MAÑANA LO COMIENZO

En lineas generales lo veo bien si no dispones de nada mas, si puedes cambia el winstrol por el depor 50 mg EOD.

Lo olvide… el tamoxifeno y el nolvadex son la misma cosa… lo tienes a 10 mg diarios durante el ciclo, yo realmente no lo incluiria en ese ciclo, es bastante suave, lo dejaría para el post en la misma proporción 10 mg diarios.

el nolvadex mejor lo tienes a mano y solo usalo si notas alguna molestia… en el postciclo creo ke en relacion a las dosis ke va a usar y ke no es muy grande el ultimo pincho de HCG no te hace falta… con 2 pinchos de 2.500ui seria suficiente… por otra parte en el post no meteria el tamoxifeno si no clomifeno + proviron…
el legalon yo particularmete lo tomaria antes y despues no durante…
respecto a lo de la testo mienrtas la estas usando tienes 5 semnas para buscar alguna ampolla mas y terminar un ciclo algo mas decente… el winstrol como ya te hemos dicho todos muchas veces 50mg eod y ese deca seria mejor ke lo subieras a razon de 300mg semana… si no puedes pues o lo post pones o lo haces asi claro… esa estu decision…

un saludo…

P.D. nuevamente te recomiendo ke lees y te documentes…

NOTO AQUIE QUE EL INCONVENIENTE ES EL DINERO, PROBLEMAS DE MUCHOS, PERO CREO QUE TE PUEDO ALIVIAR DOS SEMANAS, QUE A MI CRITERIO SON LA 6TA Y 7MA, EN LAS QUE SI NO PUEDES ELEVAR EL WINNY AUNQUE SERIA LO IDEAL, NO PREOCUPES PUES AUN ESTAS CON EL INDICE ANABOLICO GRANDE DEL DECA QUE A SU VES DEBERIA ESTAR EN 300 MG. PERO VOLVIEN AL WINNY, SI O SI EN LA 8VA Y 9NA SEMANA DEBE ESTAR A RAZON DE 50MG EOD, Y EN EL POST ES CIETO NO HAY NECESIDAD DE TANTO HGC, EN LA 12DA SEM, COMO MUCHO HAS SOLO 1000UI, O NADA YA QUE EL CICLO ES BASTANTE SUAVE.

MI RECOMENDACION SUMANDO LO QUE YA TE DIJERON:

Sema… Deca …Textes … Winstrol(dia)…Nolvadex(dia)…HCG /semana

1---------300-------250 ---------------------
2---------300-------250 -------------------10
3---------200-------250--------------------10
4---------200-------250--------------------10
5---------200-------250--------------------10
6---------200----------------.20 mg ------10
7---------200-----------------20 mg ------10
8------------------------------20 mg ------10
9------------------------------20-mg-------10 mg
10-------------------------------------------10 mg -------2500iu
11-------------------------------------------10 mg -------2500iu
12-------------------------------------------10mg---------50mg de clomid(dia)

legalon 3 capsulas al dia.

aminoacidos si son en tabletas me tomaria 6 y si son en capsulas 8 de la manera que propones.

todo lo demas lo veo bien :evil:

Mejor asi

Yo meteria Proviron desde la 1ª semana hasta el final del ciclo a razon de 25mg diarios (1 pastilla por lo que no te subira mucho el presupuesto teniendo en cuenta que cada caja lleva 20) sacaria el Novaldex y lo meteria a partir de la 5ª semana.

En el Post añadiria clomid a razón de 50mg diarios un par de semanas y solo dejaria el primer pincho de HCG.

Lo ideal seria que sustituyeras el Wistrol Oral por Wistrol Depot.

Un saludo.

Sema… Deca …Textes … Winstrol(dia)…tamoxifeno(dia)…HCG /semana

1---------300-------250
2---------250-------250
3---------250-------250
4---------250-------250--------------------------1/noche
5---------250-------250--------------------------1 "
6---------250-------250-----50 mg eod --------1 "
7---------250-------250-----50 mg eod---------1 "
8---------250----------------50 mg eod---------1 "
9------------------------------50 mg eod--------1 "
10-------------------------------------------------1 "----------2500iu
11-------------------------------------------------1 "----------50mg de clomid(dia)

Proviron desde la 1ª semana hasta el final del ciclo a razon de 25mg diarios


YO CREO Q ESTÁ PERFECTO YA, AL FINAL LE HE DADO CAÑA Y HE CONSEGUIDO EL RESTO.

ULTIMAS OBSERVACIONES!!!

Es mas o menos lo mismo, pero lo haría asi:

Sema… Deca …Textes … Winstrol(dia)…tamoxifeno(dia)…HCG /semana

1---------300-------250
2---------250-------250
3---------250-------250
4---------250-------250---------------------1/noche
5---------250-------250---------------------1 "
6---------250-------250-----50 mg eod ------1 "
7---------250-------250-----50 mg eod-------1 "
8---------250---------------50 mg eod-------1 "
9---------------------------50 mg eod-------1 "
10------------------------------------------1 "----------2500iu
11------------------------------------------1 "----------2500iu , 50mg de clomid(dia)

Proviron desde la 1ª semana hasta el final del ciclo a razon de 25mg diarios

:evil: LA SEMANA 8 CON DECA, NO SIRVE, CUANDO COMIENSE EL POST TODAVIA VA A TENER MUCHA NANDROLONA ACTIVA EN EL CUERPO, LO QUE HARA MAL AL POST.

:idea: HASSEL SIEMPRE TRATA DE TERMINAR EL CICLO CON SUSTACIAS DE VIDA CORTA, ENTIENDASE LAS 2-3 SEMANAS FINALES, NI USAR DECA, O ALGUNA TESTO QUE NO SEA PROPIONATO ES UNA IDEA INTELIGENTE, ES MAS CASI SEGURO TE VA A FALLAR EL POST, EL DECA DURA ACTIVO COMO MINIMO 15-20 DIAS DEPENDIENDO DE LA PERSONA CLARO ESTA :idea:

:?: YO QUIERO SABER LA IDEA PARA USARLO LAS 2 ULTIMAS SEMANAS :?:

resp

Bueno un saludo a todos, estuve ausente unos buenos meses, pero bueno aqui estoy para ayudar en lo que pueda, viendo tu ciclo, me parece bien , si es tu primer ciclo, para mi la idea de comenzar tu primer ciclo sera siempre suave , eso es para ver como reacciona tu organismo para tales esteroides y ver que tan buenos son tus receptores.
Por lo visto ya te aconsejaron, y viendo los post, me parece bien el que fgam te aconseja, las dosis me parecen bien y aceptables.

Buenop sin mas que decir, y recomendarte que lo hagas a cabalidad y con mucha disciplina.ok

Suerte y exitos totales. :twisted:

el winstrol depot lo tengo durante 4 semanas, me lo tengo q inyectar todos los dias durante las 4 semanas, o va bien con dos dosis a la semana.???

Hassel el winstrol úsalo como dice la indicación del ciclo, 50 mg EOD, es decir 50 mg dia si dia no; lunes, miercoles, viernes, domingo, martes, jueves y repites así las demás semanas.