Una pequeña ayuda porfavor (ciclo)

Hola amigos, luego de mucho tiempo regrese y justo 3 dias despues de comenzar mi ciclo, nesecito un consejo espero que me pueda ayudar. Este es el ciclo que estoy haciendo:

Semana -------Sustanon-------Winstrol ----HCG —Dianabol-------Boldenona
-----------------mg -------------mg -------UI-----5mg/p---------------mg
1---------------500----------------------------------6--------------------500
2---------------500----------------------------------6-------------------500
3---------------500----------------------------------6-------------------500
4---------------500----------------------------------6-------------------500
5---------------500------------------------------------------------------500
6---------------500------------------------------------------------------500
7---------------500---------------50 (lunes-miercoles-viernes)--------500
8---------------500---------------50 (lunes-miercoles-viernes)--------500
9---------------------------------50(lunes-miercoles-viernes)
10--------------------------------50(lunes-miercoles-viernes)
11--------------------------------------- 2500(lunes y jueves)
12--------------------------------------- 2500(lunes y jueves)

Tengo pensado tomar arimidex ya lo compre pero tengo una duda … estaria correcto tomar 1mg diario ? si fuera asi en que momento del dia lo tomaria ? en la mañana o en la noche o no se antes de dormir, Gracias de antemano por su ayuda.

Re: Una pequeña ayuda porfavor

Datos? Y cuantos ciclos llevas?
Los protectores se toman de noche

Re: Una pequeña ayuda porfavor

Ah bueno, peso 81 kilos, tengo 23 años, mido 1.72 m, este seria mi segundo ciclo. Sobre los protectores estoy tomando por ahora solo silimarina de la marca GNC y unos complejos vitaminicos aparte de mis proteinas, estoy haciendo de 3 a 4 comidas solidas y 3 tomas de proteína con carbohidrato en todo el día. Entonces el arimidex lo tomaría antes de dormir no? estaría bien 1mg diario o es mucho o poco?.

Muchas gracias de antemano por tu ayuda.

disculpame que es 6 de dianabol? no seran 6 mg no??

es poco tiempo para que pegue la bolde, yo lo alargaria dos semanas tanto a la bolde como a la testo…

si son 6 pastillas de 5mg cada una

a esta bien habias puesto ahi perdoname no lo interprete bien…

bueno el ciclo esta bien planteado solo eso, con 8 semanas no te alcanza a pegar la bolde…