Visto bueno de mi ciclo (corregido)

sem-------sostenon-------wins------primo------prov-------novaldex------omifin------hcg
1------------250-----------------------200--------25-----------10---------------------------
2------------250-----------------------200--------25-----------10-----------------------500
3------------250-----------------------200--------25-----------10-----------------------500
4------------250-----------------------200--------25-----------10-----------------------500
5------------250-----------------------200--------25-----------10-----------------------500
6------------250-----------------------200--------25-----------10-----------------------500
7-----------250----------50-----------200---------25----------10-----------------------500
8-----------250----------50-----------200---------25----------10-----------------------500
9-------------------------50------------------------25----------10-----------------------500
10-----------------------50------------------------25-----------10-----------------------500
11--------------------------------------------------------------30----------100-------------
12--------------------------------------------------------------20-----------50-------------
13--------------------------------------------------------------20----------50--------------

como lo ven? es mi primer ciclo…
solo tengo unas ultimas dudas, mi winstrol es en tabletas (ya se que la cague) de 10 mg, tendria que tomar 5 diarias? o 5 semanales?, otra cosa el hcg opte por usarlo asi x que lei en otro post que asi se evita la atrofia testicular y que es mejor emplearla asi.
y mi pregunta que dias debo inyectar cada sustancia?ejemplo:
supongamos que inicio mi ciclo un lunes ese dia tendria que pinchar el sostenon y el primo? o en dias diferentes? y el proviron en la noche es correcto verdad? novaldez en que momento del dia y el hcg?
he leido mas post pero me confunden un pco ojalame ayuden

Hola luigui,

Recuerdanos tus datos y objetivo del ciclo!!

PERDON jeje aqui estan:
mi objetivo es definicion
ya estoy bajando mi grasa corporal como me lo habias recomendado en el otro post
peso 89 kg
estatura 1.73
%16.5
23 años
4 años entrenando

El wins si es oral se toma ED.
Nolva y provi por la noche.
Las sustancias las puedes inyectar como quieras, por ej; L 1 ml de susta, J 3ml de primo.

Yo haría esto;

sem-------sostenon-------wins------primo------prov-------novaldex------omifin------hcg
1------------250-----------------------300--------------------------------------------------
2------------250-----------------------300--------25-----------10-----------------------500
3------------250-----------------------300--------25-----------10-----------------------500
4------------250-----------------------300--------25-----------10-----------------------500
5------------250-----------------------300--------25-----------10-----------------------500
6------------250-----------------------300--------25-----------10-----------------------500
7-----------250----------50-----------300---------25----------10-----------------------500
8-----------250----------50-----------300---------25----------10-----------------------500
9-------------------------50------------------------25----------10-----------------------500
10------------------------50------------------------25----------10-----------------------500
11----------------------------------------------------------------30----------100-------------
12----------------------------------------------------------------20-----------50-------------
13----------------------------------------------------------------20-----------50--------------

ok entonces el prov y novaldex los empezaria la segunda semana, y el omifin lo tomare en el dia al empezar el post ciclo, en cuanto a la hcg que hora es mejor? y en que medida? ejemplo tengo 1 ampolleta de1 ml x 2500 ui, se supone que me inyectaria 500 ui por semana…entonces como le hago pa calcular cuanto meterle a la jeringa? tendrian que ser microlitos? otra pegunta…sepongamos que mi semana queda asi…

lunes sostenon, wins
martes–wins
miercoles–wins
jueves—primo,wins
viernes–hcg,wins
podria cambiar la hcg e inyectarmela el sabado en lugar del viernes? o los fines de semana se respetan y no se aplica nada?

aqui presento tambien mi dieta, ojala me puedan ayudar a corregirla

nada mas aldespertarme—proteina de suero (25g) con leche desgrasada
desayuno–pechuga de pollo (200 gr) y arroz blanco (100gr)
medio dia- sandwich de pechuga de pavo (3 rebanadas) con queso panela
comida–carne de res asada (250 gr) con verduras (varias)
entrenamineto
licuado post entreno—suero de leche (25gr) con leche desgrasada
cena–3 latas de atun en agua con pepino
antes de dormir–batido de suero de leche (25gr) con leche desgrasada

es para definicion

**Hola

Me gusta el ciclo :mrgreen:
El HCG te lo puedes poner el sabado ok
Respecto al ciclo que te parece si cambias en la semana 7 el susta por Propionato
Seria así Semana 7 al 9 o 10 300mg de propionato saldrás mucho mas apretado :mrgreen: :mrgreen:
Saludos**

hola gracias por tomarse la molestia de responder mis dudas y creo que la diieta va en otro foro jeje
de verdad crees que saldria en mejor forma con propionato? a que se debe esto?

bueno suponiendo que asi fuera el ciclo quedaria asi?

sem----sost----propi—wins----primo—prov----noval—omifin—hcg
1-------250-----------------------300------------------------------------
2-------250-----------------------300------25------10--------------500
3-------250-----------------------300------25------10--------------500
4-------250-----------------------300------25------10--------------500
5-------250-----------------------300------25------10--------------500
6-------250-----------------------300------25------10--------------500
7---------------300-------50-----300-------25------10-------------500
8---------------300-------50------300------25------10--------------500
9---------------300-------50----------------25------10-------------500
10-------------------------50----------------25------10-------------500
11--------------------------------------------30-----100----------------
12--------------------------------------------20------50-----------------
13--------------------------------------------20------50------------------

sem----sost----propi—wins----primo—prov----noval—omifin—hcg
1-------250-----------------------300------------------------------------
2-------250-----------------------300------25------10--------------500
3-------250-----------------------300------25------10--------------500
4-------250-----------------------300------25------10--------------500
5-------250-----------------------300------25------10--------------500
6-------250-----------------------300------25------10--------------500
7---------------300-------50-----300-------25------10-------------500
8---------------300-------50------300------25------10--------------500
9---------------300-------50----------------25------10-------------500
10-------------------------50----------------25------10-------------500
11-----------------------------------------------------30-----100---------
12-----------------------------------------------------20------50-----------
13------------------------------------------------------20------50-----------
corregido

Si quieres meter Propionato llevalo hasta el final, recuerda que es 75 ó 100 mg Eod…

sem----sost----propi—wins----primo—prov----nolva–omifin—hcg
1-------250-----------------------300------------------------------------
2-------250-----------------------300------25------10--------------500
3-------250-----------------------300------25------10--------------500
4-------250-----------------------300------25------10--------------500
5-------250-----------------------300------25------10--------------500
6-------250-----------------------300------25------10--------------500
7---------------300-------50-----300-------25------10-------------500
8---------------300-------50------300------25------10--------------500
9---------------300-------50----------------25------10-------------500
10--------------300-------50----------------25------10-------------500
11-----------------------------------------------------30------100---------
12-----------------------------------------------------20-------50-----------
13-----------------------------------------------------20-------50-----------

**Este esta perfecto

El Propionato es una testosterona rápida tiene una vida media de un dia i medio a dos por lo que los efectos son mejores con e Wins "en pocas palabras mas efectividad "
Si lo cambias te lo pones el mismo dia que el Wins ok
Ejemplo:
Lunes 50mg Wins y 100mgh Propionato
Miércoles 50mg Wins y 100mg Propionato
Viernes 50mg Wins y 100mg Propionato
Y así todas las semanas
Saludos**

BUENO muchas gracias maverik y dagorgio a ver aqui corrigo el ciclo:
sem----sost----propi—wins----primo—prov----nolva–omifin—hcg
1-------250-----------------------300------------------------------------
2-------250-----------------------300------25------10--------------500
3-------250-----------------------300------25------10--------------500
4-------250-----------------------300------25------10--------------500
5-------250-----------------------300------25------10--------------500
6-------250-----------------------300------25------10--------------500
7---------------100-------50-----300-------25------10-------------500
8---------------100-------50------300------25------10--------------500
9---------------100-------50----------------25------10-------------500
10--------------100-------50----------------25------10-------------500
11-----------------------------------------------------30------100---------
12-----------------------------------------------------20-------50-----------
13-----------------------------------------------------20-------50-----------

asi esta bien?
oigan me pueden orientar sobre hcg…no se cuanto meter a la jeringa, oigan aqui puedo postear mi rutina pa que le hechen un ojo?