Winstrol/Decadurabolin o Wini/bolde

Bueno antes de nada daros un saludo a todos. Soy recien registrado en esta pagina aunque la he visto varias veces.
El caso esque quiero hacer mi ‘‘segundo ciclo’’ (lo pongo entre comillas porque el año pasado hice uno de winstrol con proviron, 6 semanas, y aqui esta mas visto como monociclo), y el caso esque nose porque ciclo decidirme.
Tengo 24 años, mido 180cm y peso cerca de 75kg. Mi constitucion es atletica, llevo 5 años en el gym, el pasado año hice el ‘‘monociclo’’ y me fue bastante bien para lo que queria conseguir. cuerpo atletico pero con algo mas de masa.
Este año quiero dar un salto en cuanto a peso y ponerme en unos 80kg.

Habia pensado en un ciclo de win/deca y despues de leer muchisimo quiero pedir vuestros consejos estructurandolo de la siguiente manera.

…PROVIRON…BOLDE…WINS… HCG
1---------------------- 200
2-------50-------------200
3-------50-------------200
4-------50-------------200
5-------50-------------200---------50
6-------50-------------200---------50
7-------50-------------200---------50
8-------50-------------200---------50
9------------ -----------------------50---------1000
10----------------------------------50---------1000

Este es por el que me he decantado hasta ahora.
Me gustaria que me facilitaseis uno de winstrol con deca, con una tabla similiar y con las cantidades que que me recomendais.
Por ultimo me gustaria reiterar de que me intencion es seguir con un cuerpo atletico, no me quiero poner grande, por eso le he puesto esa cantidad de bolde.
Muchas gracias a todos de antemano, y enhorabuena por esta magnifica web que tanto ayuda!!

he puesto mal una cosa, tan solo que por el que me he decantado hasta el momento es el de win/bolde.
Quiero unas ganancias no grandes pero si de calidad.
Gracias!!!

a ese ciclo le falta testo como no ,podrias tener problemas de libido si no la metes ,tu dieta que tal anda deberias exponerla y segun tus intenciones veremos lo del ciclo pero quitate la idea de la cabeza de hacer un ciclo con wini/bolde se le tendria que añadir testo ok
un saludo

respecto alo que comentas podrias hacer un ciclo de masa magra pero estas seguro de que ya no puedes apretar mas y conseguir tu objetivo?

Hola, muchas gracias por tu contestacion. Con respecto a la dieta como lo que una persona normal, tanto en comida como en cena. y aparte el resto de comidas pues cerca de 1/2kg de arroz, mucho atun, pavo y unas 10claras de huevo diarias cocidas (cuezo un tetrabrik de claras, lo divido en 3 y tengo para 3 dias).
Al ciclo, añardirle tbn teste se me iria de las manos en cuanto al precio. Que opinas entonces de un ciclo de Winstrol + Deca o Susta…
Muchas gracias de antemano.
entreno fuerte todos los dias y como bastantes hidratos y proteinas, pero mi constitucion ya me limita el coger los 7 u 8 kg que quiero coger. Antes pesaba unos 65kg y en estos años he cogio casi 10 y todo limpio.

Un apunte: el pasado año hice el monciclo de winstrol, y la en cuanto a ganancias (5kg limpiios) me fue mi bien, acabe supercontento, pero note mucho una baja de libido y no quiero que me vuelva a pasar…

Lo de la bajada de libido va relacionado con la falta de testo. Todo ciclo tiene que llevar una base de Testosterona.
Te cuelgo el primer ciclo que hice que me fue bastante bien…lo unico que tienes que añadirle es el HCG a partir de la semana 9 a razon de 1000 E3D y el clomid en la semana 11 a razon de 100mg/dia y la semana 12 y 13 a razon de 50mg/dia

sem—sustanon(mg/sem)—deca(mg/sem)—winstrol(EOD)—legalon(ED)—proviron(ED)—nolvadex(ED)
1--------------250----------------------200--------------------------------------------------------------------------------
2--------------250----------------------200----------------------------------------------------25-----------------10-----
3--------------250----------------------200----------------------------------------------------25-----------------10-----
4--------------250----------------------200----------------------------------------------------25-----------------10-----
5--------------250----------------------200----------------------------------------------------25-----------------10-----
6--------------250----------------------200----------------------------------------------------25-----------------10-----
7--------------250----------------------200--------------50------------------------------------25-----------------10-----
8--------------250----------------------200--------------50------------------------------------25-----------------10-----
09---------------------------------------------------------50------------------------------------25-----------------10-----
10---------------------------------------------------------50------------------------------------25-----------------10-----
11-----------------------------------------------------------------------------------------------------------------30----
12------------------------------------------------------------------------------------------------------------------20----
13------------------------------------------------------------------------------------------------------------------20----

estoy completamente de acuerdo con el compañero de arriba, primero que nada quede por mas que enterado que toda base de un ciclo es la testo, sea definicion, volumen, masa magra, etc…
yo hace un año hize uno con wins y trembo sin testo y fue un gran error, el ciclo que te postea este compañero esta bastante bien, pero me parece que te funcionaria mas con bolde ya que supongo quieres masa magra, no estoy seguro pero segun e leido por ahi las ganancias que ofrece la bolde son de mayor calidad que el deca. saludos.

Es correcto, el ciclo que postee arriba es de Volumen.
Si lo que quieres es uno de masa magra yo cambiaria el sustanon por testex (misma cantidad 250mg) y el deca por bolde ( de bolde pondria 400mg)
Cambiando estas dos sustancias tienes un ciclo de masa magra, al cual si quieres puedes añadirle un kick star de dianabol las 4 primeras semanas a razon de 25-30 mg diarios.
Ya depende de tu eleccion si Volumen o Masa magra.

Muchas gracias por vuestras aportaciones.
La verdad esque quiero algo fojo, suficiente para coger 5kg de masa magra y calidad. Con el monociclo de wintrol lo consegui, pero el problema fue el libido. No me gustaria meter mas de dos anabolizantes, por eso habia pensando en wins cn bolde, pero si tendria problemas de libido de nuevo pues lo descarto. Que me recomendais para masa magra? Que sea de dos anabolizantes, que para ser el primer ciclo no quiero mucha caña.
Estoy harto de leer y leer y siempre sugen dudas e indecisiones, gracias por ayudar a aclararlas!!

buenas, win, testo (textes como dice el compañero de arriba) y bolde tal como el te lo planteo, si quieres usar solo dos sustancias estaras desperdiciando las virtudes de alguna y sin contrarrestar los efectos de otra, con esas 3 te pegaria bien! pura masa magra, dejame ver si te puedo estructurar el ciclo. saludos.

…sustanon…bolde…proviron…wins(eod).tamo.hcg(e3d) clomid
1…250…400…
2…250…400…25…10…
3…250…400…25…10…
4…250…400…25…10…
5…250…400…25…10…
6…250…400…25…10…
7…250…400…25…50…10…
8…250…400…25…50…10…
9…25…50…10…1000…
10…25…50…10…1000…
11…30…100
12…20…50
13…20…50

algo asi quedaria lo que te plantea el compañero, debe pegar chido para masa magra =)

muchisimas gracias por el ciclo posteado.
Solo me queda una pregunta, ¿no crees que con eso cogere demasiados kilos? esque con 5 kilos estoy satisfecho, no me gustan los cuerpos exagerados… nose como funcionaria el ciclo, y la cantidad de peso que cogeria, te lo pregunto desde la ignorancia.
Gracias de nuevo!!!

que opinas de la mezcla de sustanon con winstrol y proviron? que opnion te merece.
esque el ciclo que posteas me saldrias por un dinerito…

una pregunta mas, despues de mucho leer siempre veo que la gente dice que para salir del ciclo viene muy bien el winstrol, asique lo ponen en las ultimas semanas para que terminen a la par que el resto de roids que se usen. xq motivo se hace esto?

QUE TE PARECE ESTE??
…WIN…SUSTA…PROV…CLOMIFENO
1--------------------------250----------------------------------------------
2--------------------------250------------------25-------------------------
3--------------------------250------------------25-------------------------
4--------------------------250------------------25-------------------------
5---------50--------------250------------------25-------------------------
6---------50--------------250------------------25-------------------------
7---------50--------------250------------------25-------------------------
8---------50--------------250------------------25-------------------------
9---------50------------------------------------25-------------------------
10-----------------------------------------------------------------50
11-----------------------------------------------------------------50
12-----------------------------------------------------------------50

pues lo que pasa que la bolde da ganancias de calidad, como son lo que tu quieres, el wins lo meten al final para aprovechar que la testo sigue en el cuerpo, recuerda que lo mas importante del ciclo es la dieta, si tienes una dieta adecuada y sigues el ciclo que sugirio el compañero, (el que postie despues)
deberas ganar unos 4-7 kg de masa magra. no me fio mucho de los ciclos con dos sustancias como el que tu sugieres =)

yo realmente opino que deberias probar con boldenona ok o si no con primobolan para un primer ciclo en condiciones, deca tiene la habilidad de subir los valores de prolactina y wins efectivamente lo suyo es de salida.faltan protectores hcg etc…

semana…primo(ew)… testex(ew)…proviron(ed)…tamo(ed)…hcg(e3d)
1…300…250…
2…300…250…25…10…
3…300…250…25…10…
4…300…250…25…10…
5…300…250…25…10…
6…300…250…25…10…
7…300…250…25…10…
8…10…
9…10…
10…20…1500
11…20…1500

en base a esto si quieres meter wins lo meterias en la semana 8 y 9 alargando el proviron ok me parece un ciclo orientado alo que comentas .
un saludo bch

semana…primo(ew)… testex(ew)…proviron(ed)…tamo(ed)…hcg(e3d)
1…300…250…
2…300…250…25…10…
3…300…250…25…10…
4…300…250…25…10…
5…300…250…25…10…
6…300…250…25…10…
7…300…250…25…10…
8…10…1000
9…10…1000
10…20…
11…20…

no seria asi mas apropiado para en dado caso use clomifeno arancar junto con el tamo en la semana 10 11 y 12?

el ciclo se ve bien para un primer ciclo, corto 2 o 1 pinchazo a la semana, en lo personal no me gustaria usar deca para un primer ciclo, siento que es muy agresivo a la hora de suprimir el eje.